Oops, an error
Loading. Please wait.

Naked City Bass Tab

by KISS
2,539 views 6 this week
no commentswrite comment
1 2 3 4 5
x 5
add to favorites
launch autoscroll
font size
0
reset
guitar tuner
Autoscroll
slow
fast
+/-
esc
set tempo
stop
Help us to improve Ultimate-Guitar.com Take our survey!
×
Author
Difficulty
novice
-------------------------------------------------------------------------------
			     Naked City - Kiss
-------------------------------------------------------------------------------

Tabbed By : SkyBass
e-mail: Kiss-fanatic@hotmail.com

Tuning: Standard

  Intro/Chorus
G|-----------------------------------------------------------------------------------|
D|----------------------1-2-4-5------------------------------------------------------|
A|---------2--0-2-3-2-4--------------------------------------------------------------|
E|3-2-0---0--------------------------------------------------------------------------|

  Verse
G|-------------------------------------------------------------------------------------|
D|-------------------------------------------------------------------------------------|
A|3\---------------3--------------------------------------------------------7----------|
E|---------------3---3-5--------------5-3-0--------0--7\----0-----------0--------------|
  All the victims have turned to stone      no one is happy They're all alone

G|----------------------------------------------------------------------|
D|----------------------------------------------------------------------|
A|------------------3------------------------2-2-2-2-2-2-2-2-2-2-2-2-2--|
E|3\---------------3-3-5---------------5-3-5----------------------------|
     I'd sacrifice my  Social position tonight
G|---------------------------------------------------------------------------------------|
D|---------------------------------------------------------------------------------------|
A|0-2-3\-------------3-2-0---------------------------------------------------------------|
E|--------------------------------------5-3-0-------0--7\----------0------0-7-5----------|
         In new york        Millionairs         Lonley people With lonley stares
G|------------------------------------------------------------------------------|
D|------------------------------------------------------------------------------|
A|3\--------------3-------------------------------------------------------------|
E|--------------3---3----5------------------5--3--5--2-2-2-2-2-2-2-2-2-2-2-2-2--|
     I'm not looking for love and I'm lost in this night

  Bridge
G|-----------------------------------------------------------------------------|
D|-----------------------------------------------------------------------------|
A|-------------3-----------------5--3-------------3-------------5--3-----------|
E|3-2-0-----0--------3-2-0----0--------3-2-0---0-----3-2-0---0--------------0--|

Bass Tab Legend:

/  slide up
\  slide down
h  hammer-on
p  pull-off
~  vibrato
+  harmonic
x  Mute note
Suggest correction
comments
print report bad tab
guest
You may want to rate the tab now too:
select rating
Wanna post a correction for this tab? Suggest correction