Oops, an error
Loading. Please wait.

Parasite Bass Tab

version 2
version 2

Whole song

Interactive

by KISS
2,027 views 3 this week
no commentswrite comment
1 2 3 4 5
please rate
add to favorites
launch autoscroll
font size
0
reset
guitar tuner
Autoscroll
slow
fast
+/-
esc
set tempo
stop
Help us to improve Ultimate-Guitar.com Take our survey!
×
Author
Parasite Bass Tab by Kiss,
Song Title: Parasite (Hyper Accurate)
Artist: KISS
Tuned: 1/2 step down  (Eb Tuning)
Submitted by: Grant Aldrich
----------------------------------------------
Key:
/    = slide up
\    = slide down
b    = bend (whole step)
b^   = bend (1/2 step)
b^^  = bend (1 1/2 steps)
pb   = pre-bend
r    = release-bend
t    = tap with righthand finger
h    = hammer-on
p    = pull-off
~    = Vibrato
*    = Natural Harmonic
#(#) = Trill
**   = Artificial Harmonic
x    = Dead notes (no pitch)
P.M. = Palm mute (- -> underneath indicates which notes)
(\)  = Dive w\bar
(/)  = Release w\bar
Tp   = Tap w\plectrum
>    = Accent (played stronger louder)
Notes:  This song is mostly 8th notes except for the intro which are 16th notes.

Guitar plays 5 full measures; bass enters on end of 5th measure.

Intro
1.
G---------------------------------------|------------------------------|
D---------------------------------------|------------------------------|
A--- > ---------------------------------|------------------------------|
E---18\----1-2-3-3---3--3-1-2-3--3-X-X--|-1-2-3-3—--3---—3-1-2-3-------|

2.
G---------------------------------------|------------------------------|
D---------------------------------------|-------------------------3/5--|
A---------------------------------------|------------------------------|
E---1-2-3-3---3--3-1-2-3--3-X-X---------|-1-2-3-3—--3---—3-1-2-3-------|


Verse (Vocals enter here)
She'll  always be there try - n to grab ahold
G---3--3-----------3------|--3-----------------------------|
D---------3---5-----------|-----5----—3---—6---------------|  Then play intro 2.
A-------------------------|--------------------------------|
E-------------------------|--------------------------------|


Chorus
   Par-a-stie  La - dy                           Par-a-site___Eyes
G-------------------------|-------------------|-----------------------|
D------------3----1-------|-----1-1h3—--1-----|-----------------------|
A-------------------------|---------------1---|--1---3---3------------|
E—1—3—3-------------------|-------------------|--------------1--------|


                              No Need to - cry
G-------------------------|----------------------|
D--1--1--1----------------|----------------------|
A-------------------------|---1--3----3----------|
E-------------------------|----------------1-----|


Interlude

G-------------------------|----------------------|
D-------------------------|----------------------|
A-------------------------|--------------- > ----|
E---3\--------------------|----------------15\---|


Guitar Solo (4X)
G--------------------------|-------------------------------|
D-----------5-----------5--|--------5---5-3----------------|
A--------------------------|-----------------5---3—1-------|
E---3---3-------3---3------|--3--3---------------------3---|

G--------------------------|-----------------------|
D------------3-------------|-------------3---------| Rest then
A--3-----------------------|--3--------------------| back to intro 1
E-----1--1-------1---1-----|-----1---1-----2---3\--|

I know this tab is extremely accurate but if you find anything please let me know.

Submitted by:  Grant Aldrich - zeroed4x@hotmail.com
Suggest correction
What's this?
You can suggest a correction to this tab. Community and Mods will review your correction and vote to approve or reject it.
comments
We did not receive enough feedback on this tab! Please rate:
print report bad tab
1 2 3 4 5
guest
You may want to rate the tab now too:
select rating
Please do not post tabs as comments. Select "correction" instead!