Oops, an error
Loading. Please wait.

Parasite Bass Tab

version 3
version 3

Whole song

Interactive

by KISS
608 views 1 this week
2 commentsread comments
1 2 3 4 5
please rate
add to favorites
launch autoscroll
font size
0
reset
guitar tuner
Autoscroll
slow
fast
+/-
esc
set tempo
stop
Help us to improve Ultimate-Guitar.com Take our survey!
×
Author
Difficulty
novice
guitar main x3

slide E--18/--

main riff x2

G------------------------------------------|
D--3h4h5-55-3h4h5h-5--3h4h5h-55--3h4h5h-5--|
A------------------------------------------|
E------------------------------------------|

verse

G----3-3-----3----------|
D--3-----5-3---3-5-3-6--|
A-----------------------|
E-----------------------|

main riff

verse

main riff

verse

main riff x2

chorus x2

G---------------------------------------|
D--------3-1--1-1h3-3------------3-3-3--|
A--1h3-3--------------1-1h3-3-----------|
E-----------------------------1---------|

main riff x2

verse

main riff

verse

main riff

verse

main riff x2

chorus x2/don't play last 3 notes

guitar riff 1 x2*

riff 1 x4*

G----------------------------------------------------|
D------5-----5-----5--5-3-----------3-----------3----|
A-------------------------5-3-----------3---3--------|
E--3-3---3-3---3-3------------6-1-1---1---1---1---2--| 

guitar main x2

slide E--18/--

outro x3

G-------------------------------------------|
D-------------------------------------------|
A-------------------------------------------|
E--1h2h3h-3-3--1h2h3-3--1h2h3-3-3--1h2h3-3--|
Suggest correction
Give kudos to tab author, rate the tab!
1 2 3 4 5
comments
print report bad tab
2 comments total.
0 reply
swave75 382 wrote on July 17 2012, 10:00 pm

I like it! Good job.

0 reply
daveonly 347 wrote on July 24 2012, 02:09 pm

took me a minute to get it right. took me a couple days but this what i came up with

guest
You may want to rate the tab now too:
select rating
Please do not post tabs as comments. Select "correction" instead!