Oops, an error
Loading. Please wait.

Parasite Tab

version 3
version 3

Whole song

Interactive

by KISS
1,120 views 1 this week
no commentswrite comment
1 2 3 4 5
please rate
add to favorites
launch autoscroll
font size
0
reset
how to read this tab
guitar tuner
Autoscroll
slow
fast
+/-
esc
set tempo
stop
Help us to improve Ultimate-Guitar.com Take our survey!
×
Author
Difficulty
novice
Riff A                                                      Verse
Gtr 1

e|--------------------------------|-----------------------|-------------|
B|--------------------------------|-----------------------|-3-3-------3-|
G|--------------------------------|-----------------------|-3-3-------3-|
D|--------------------------------|-----------------------|-3-3-------3-|
A|--------------------------------|-----------------------|-1-1--5-3--1-|
E|-1-2-3-3---3---3-1-2-3---3---X-X|-1-2-3-3---3---3-1-2-3-|------3-1----|
                 Ryh. Fill 1 Gtrs 1 & 2

e|--------4-4\-|---------------------------|---------------------------------|
B|-3------4-4\-|---------------------------|---------------------------------|
G|-3------5-5\-|---------------------------|---------------------------------|
D|-3------6-6\-|---------------------------|---------------------------------|
A|-1--5-3-6-6\-|-------------------------5-|---------------------------------|
E|----3-1-4-4\-|-1-2-3-3---3---3-1-2-3---3-|-1-2-3-3---3---3-1-2-3---3---X-X-|
                               Riff B Gtrs 1 & 2

e|---------------------------|-----------------|-------------------------|
B|---------------------------|-----------------|-------------------------|
G|---------------------------|-----------------|-------------------------|
D|---------------------------|-------5-------5-|------5--5-3-------------|
A|-------------------------5-|-----------------|---------------5--3-1----|
E|-1-2-3-3---3---3-1-2-3---3-|-3-3------3-3----|-3-3-------------------3-|
                                       Guitar Solo Gtr 1 & 2 w/Riff B. 4x

e|-----------------|-----------------|--------|----------------------------|
B|-----------------|-----------------|--------|----------------------------|
G|-----------------|-----------------|-----15-|-17br-(17)br-(17)-(17)-(17)-|
D|------------3----|------------3----|-17--15-|----------------------------|
A|-3---------------|-3---------------|-17-----|----------------------------|
E|----1----1-----1-|----1----1-----2-|--------|----------------------------|


e|---------------------------|-----------|----------------------------------|
B|---------------------------|-----------|-18br-(18)br-(18)br-(18)br-(18)br-|
G|-(17)br-(17)br-(17)br-(17)-|--------15-|----------------------------------|
D|---------------------------|-15h17--15-|----------------------------------|
A|---------------------------|-----------|----------------------------------|
E|---------------------------|-----------|----------------------------------|


e|--------------------|--------------------------|--------------------------|
B|-(18)br-(18)b---6br-|-(16)---------------------|--------------------------|
G|--------------------|-------3---5p3-------3h5b-|-5br-(5)-3h5p3-----5p3----|
D|--------------------|----------------5---------|----------------5-------5-|
A|--------------------|--------------------------|--------------------------|
E|--------------------|--------------------------|--------------------------|
                                                         Fill 1 Gtr 3

e|-----------------|-----------------------------------|------------------|
B|-----------------|-----------------------------------|------------------|
G|-5h3-----3-----3-|-3h5v--5/18\12\5h3-----------------|-17-17b1/4-17b1/2-|
D|------5-----5----|--------------------5h3-5h3--3-3-0-|------------------|
A|-----------------|-----------------------------------|------------------|
E|-----------------|-----------------------------------|------------------|


e|---------------------------------------|-6-6-6p5p3-6---6-6---6-6p5p3-|
B|---------------------------------------|-----------------------------|
G|-17b-17b-17b-17b-17b-17b--18p17p15-----|-----------------------------|
D|------------------------------------17-|-----------------------------|
A|---------------------------------------|-----------------------------|
E|---------------------------------------|-----------------------------|


e|-6---6-6---6----6-6-6-6-6p5p3-6-6-6-6-6-6-6p5p3-6-6-6-6-6-6-6p5p3-|
B|------------------------------------------------------------------|
G|------------------------------------------------------------------|
D|------------------------------------------------------------------|
A|------------------------------------------------------------------|
E|------------------------------------------------------------------|


e|-6-6-6-6p5p3-6-6-6-6-6-6-6p5p3-----------------------------------------|
B|--------------------------------6-6-6-6--6-6p4p3-----------------------|
G|--------------------------------------------------5-5-5-5-5-5-5p4p3----|
D|---------------------------------------------------------------------5-|
A|-----------------------------------------------------------------------|
E|-----------------------------------------------------------------------|


e|-------------------|-----------------------------------------------------|
B|-------------------|-----------------------------------------------------|
G|-3h5p3-----3-----3-|-5p0-0-5p0-0-5p0-0-5p0-0-5p0-0-5p0-0-5p0-0-5p0-0-5p0-|
D|--------5-----5----|-----------------------------------------------------|
A|-------------------|-----------------------------------------------------|
E|-------------------|-----------------------------------------------------|


e|----------0------------------|-------------------------------------------|
B|----------0------------------|-6h8br-(8)-6-6h8br-(8)br-(8)br-(8)br-(8)br-|
G|-0-5p0-0-----5br-(5)br-(5)/7-|-------------------------------------------|
D|-----------------------------|-------------------------------------------|
A|-----------------------------|-------------------------------------------|
E|-----------------------------|-------------------------------------------|


e|----------|
B|-(8)\---3-|
G|--------3-|
D|--------3-|
A|----------|
E|----------|


thats it pretty good song enjoy and commeant please

done by Brandon
Suggest correction
Give kudos to tab author, rate the tab!
1 2 3 4 5
comments
print report bad tab
guest
You may want to rate the tab now too:
select rating
Wanna post a correction for this tab? Suggest correction