Oops, an error
Loading. Please wait.

Psycho Circus tab

version 2
version 2

Whole song

  • This tab is a lot easier to read than the other tab.

Interactive

by KISS
2,254 views 27 this week
1 commentread comment
1 2 3 4 5
x 3
add to favorites
×
Save as Personal and add changes to this tab that will be seen only by you. Learn more ›
×
You can save this tab as Personal to edit and correct it or add notes. All changes will be seen only by you. Learn more »
launch autoscroll
font size
0
reset
how to read this tab
guitar tuner
backing track
0:00
0:00
edit
Autoscroll
slow
fast
+/-
esc
set tempo
stop
About this tab version
This tab is a lot easier to read than the other tab. Was this info helpful? Yes No
Psycho Circus - KISS
Tuning Half Step Down - Eb Ab Db Gb Bb eb
Tabbed By - Derek Schmidt

Check out my page - http://www.hammerheadrocks.com/#!dereks-page/c11nt

Intro Paul and Ace
e-------------------|
B-------------------|
G--4-4-4-4-4-4-4-4--|
D--4-4-4-4-4-4-4-4--|
A--2-2-2-2-2-2-2-2--|
E-------------------| Repeat then Pick Slide

Chorus Paul
e---------------------------|
B---------------------------|
G--4----------------2--2----|
D--4-----5--5----5--2--2----|
A--2-0---5--5----5--0--0----|
E------2-3--3--x-3----------|

you could do this instead
e--------3--3----3--------|
B--------3--3----3--------|
G--4-----0--0----0--2--2--|
D--4-----0--0----0--2--2--|
A--2-0---x--x----x--0--0--|
E------2-3--3--x-3--------|


Ace
e------------------------------|
B------------------------------|
G--11\9--6/7-7--7---7--9--9----|
D--9-\7--4/5-5--5-x-5--7--7----|
A------------------------------|
E------------------------------|

Verse Paul and Ace
e-------------0----------3-----------------3-----------|
B--------3------3--------3---------3-------3-----------|
G--4---2-2--2-----2--2---0---4---2-2---2---0--2-2---2--|
D--4---2-0-----------2---0---4---2-0---2---0--2-2---2--|
A--2---0-------------0---x---2---0-----0---x--0-0---0--|
E------------------------3-----------------3-----------|

e-------------0----------3----------------------|
B--------3------3--------3----------------------|
G--4---2-2--2-----2--2---0---4---6-7------------|
D--4---2-0-----------2---0---4---6-7------------|
A--2---0-------------0---x---2---4-5------------|
E------------------------3--------------2/(17)--|

Pre Chorus Paul and Ace
e-------------|
B-------------|
G----------2--|
D--2--4-5--2--|
A--2--4-5--0--|
E--0--2-3-----|


Chorus   Paul
e---------------------------|
B---------------------------|
G--4----------------2--2----|
D--4-----5--5----5--2--2----|
A--2-0---5--5----5--0--0----|
E------2-3--3--x-3----------|

you could do this instead
e--------3--3----3--------|
B--------3--3----3--------|
G--4-----0--0----0--2--2--|
D--4-----0--0----0--2--2--|
A--2-0---x--x----x--0--0--|
E------2-3--3--x-3--------|


Ace
e------------------------------|
B------------------------------|
G--11\9--6/7-7--7---7--9--9----|
D--9-\7--4/5-5--5-x-5--7--7----|
A------------------------------|
E------------------------------|


Verse


Chorus 


Bridge Ace
e---------------------------------------------------------------------------|
B---------------------------------------------------------------------------|
G-----7--6--------7--6-------7--6----------7--6-------7--6----------7--6----|
D--5-------7-5--5-------7--4-------7-4--4-------4--5--------7-5--5-------5--|
A---------------------------------------------------------------------------|
E---------------------------------------------------------------------------|

e-----------------------------|
B-----------------------------|
G-----7--6---------7--6----4--|
D--7--------7-8--8-------4----|
A-----------------------------|
E-----------------------------|

Solo Ace
e------------------------------------------------------------------------|
B--4b5r4--4---4--5--7--8------------5--4---4--5--7-/8-----------------5--|
G--------------------------7---6-----------------------7\4----6----6-----|
D----------------------------------------------------------5----7--------|
A------------------------------------------------------------------------|
E------------------------------------------------------------------------|


In music video Ace starts here
e-----------------------------------------------7---------------------------|
B--5--4---4--5--7--8-/12---10---8--8-8--8h10p8----8---10--10--14--15-15b17--|
G---------------------------------------------------9-----------------------|
D---------------------------------------------------------------------------|
A---------------------------------------------------------------------------|
E---------------------------------------------------------------------------|

And here Paul harmonizes with Ace
e------------------------------------------------------------------------------|
B--9--7---9--7-10-12-/15---14---12--12-12-12h14p12--15----12----14------12b14--|
G------------------------------------------------------12------------16--------|
D------------------------------------------------------------14----------------|
A------------------------------------------------------------------------------|
E------------------------------------------------------------------------------|


Main Solo Ace             Paul will do chorus

E-------7-7-------7-7-------7-----------------------|
B-------7-7-------7-7-------7-----------------------|
G--9b11------9b11------9b11----9b11r9p7----7h9---9--|
D----------------------------------------9----------|
A---------------------------------------------------|
E---------------------------------------------------|

E-------7-7-------7-7-----------7-----9------11-----|
B-------7-7-------7-7-----------9b11--12b14--13b15--|
G--9b11------9b11------9b11-------------------------|
D---------------------------------------------------|
A---------------------------------------------------|
E---------------------------------------------------|

E-------7-7-------7-7-------7-----------------------|
B-------7-7-------7-7-------7-----------------------|
G--9b11------9b11------9b11----9b11r9p7----7h9---9--|
D----------------------------------------9----------|
A---------------------------------------------------|
E---------------------------------------------------|

e--7----9------11----12-----14-----19-----|
B--9b11-12b14--13b15-15b17--17b19--22b24--|
G-----------------------------------------|
D-----------------------------------------|
A-----------------------------------------|
E-----------------------------------------|

Break Down Paul
e--------0-------------0----------0-----------0-------0--|
B------0---0---------0---0------0---0-------0---0---0----|
G--4-4-------4--4--4-------4---4------4---4-------4------|
D--4------------5------------2----------5----------------|
A----------------------------0---------------------------|
E--------------------------------------------------------|

Ace
e-----------------|
B------3----------|
G--4---2---2---0--|
D--4---0---2---0--|
A--2-------0---x--|
E--------------3--|

Pre Chorus Ace
e---------------------------------------------------------------|
B------------------3-3-3-3-3-3-3-3------------------------------|
G--4-4-4-4-4-4-2-2-2-2-2-2-2-2-2-2---------------------------2--|
D--4-4-4-4-4-4-2-2-0-0-0-0-0-0-0-0--2-2-2-2-2----5-5-5-5-5-5-2--|
A--2-2-2-2-2-2-0-0------------------2-2-2-2-2----5-5-5-5-5-5-0--|
E-----------------------------------0-0-0-0-0--2-3-3-3-3-3-3----|

Paul repeats chorus twice   Ace plays solo second time through

            
            
Suggest correction
Creating personal tab
Creating personal tab
You can edit any tab online and save it as your Personal.

You can edit, replace or remove any tab part or add personal notes – all changes will be seen only by you.

Personal tabs can be accessed anytime from any device, even offline.
Learn more »
Give kudos to tab author, rate the tab!
1 2 3 4 5
comments
print report bad tab
1 comment total.
0 reply
hammerheadradio 10 Jul 26, 2015 07:30 PM

Best version. I love how KISS concerts start with this song. Thanks for the tab.

guest
You may want to rate the tab now too:
select rating
Wanna post a correction for this tab? Suggest correction