Oops, an error
Loading. Please wait.

Revenge album tab

by KISS
277 views 1 this week
no commentswrite comment
1 2 3 4 5
2 more votes to show rating
add to favorites
×
Save as Personal and add changes to this tab that will be seen only by you. Learn more ›
×
You can save this tab as Personal to edit and correct it or add notes. All changes will be seen only by you. Learn more »
launch autoscroll
font size
0
reset
how to read this tab
guitar tuner
edit
Autoscroll
slow
fast
+/-
esc
set tempo
stop
Author
About this tab version
Full tab for KISS' Revenge album, complete with solos, lyrics, and song structures. Was this info helpful? Yes No
KISS Revenge (1992) Full Album

1. "Unholy" - Gene Simmons/Vinnie Vincent 

tune down 1/2 Step

Rhythm Fig. 1a
                                                  
Eb|------------------------------------------------|
Bb|------------------------------------------------|
Gb|------------------------------------------------|
Db|--4/5-----4/5-----------4/5-----4/5-------------|
Ab|------------------------------------------------|
Eb|--2/3-----2/3-----------2/3-----2/3-------------|


                                                    
Eb|------------------------------------------------|
Bb|------------------------------------------------|
Gb|------------------------------------------------|
Db|--------3--2~------2--3--------3--2~------2--3--|
Ab|--1--1----------1--------1--1----------1--------|
Eb|------------------------------------------------|
     P.M.         P.M.      P.M.         P.M.


Rhythm Fig. 1b
                                              
Eb|------------------------------------------------|
Bb|------------------------------------------------|
Gb|------------------------------------------------|
Db|--4/5-----4/5-----------4/5-----4/5-------------|
Ab|------------------------------------------------|
Eb|--2/3-----2/3-----------2/3-----2/3-------------|


                                                     
Eb|------------------------------------------------|
Bb|------------------------------------------------|
Gb|------------------------------------------------|
Db|--------3--2~------2--3--------3-----5-----2/-3-|
Ab|--1--1----------1--------1--1-----1-----1-------|
Eb|------------------------------------------------|
     P.M.         P.M.      P.M.    P.M.  P.M.


Rhythm Fig. 2
                                                
Eb|------------------------------------------------|
Bb|------------------------------------------------|
Gb|--------------------2------/7~---5~-------------|
Db|--4/5-----4/5-------2------/7~---5~-------------|
Ab|--------------------0----0----------------------|
Eb|--2/3-----2/3-------------------------0--1------|


                                          
Eb|------------------------------------------------|
Bb|------------------------------------------------|
Gb|------------------------------------------------|
Db|------------------------------------------------|
Ab|------------------------------------------------|
Eb|----1-/6----5----4------------------------------|




Rhythm Fig. 3a 
                                              
Eb|------------------------------------------------|
Bb|------------------------------------------------|
Gb|--------------------5----5--4----------/8-------|
Db|--4/5-----4/5-------5----5--4----------/8-------|
Ab|--------------------3----3--2--0--0--0----------|
Eb|--2/3-----2/3-----------------------------------|
                                  P.M. - >

                                              
Eb|------------------------------------------------|
Bb|------------------------------------------------|
Gb|--7~-------------7-----7--5/-7--7--x--5~--------|
Db|--7~-------------7-----7--5/-7--7--x--5~--------|
Ab|------------------------------------------------|
Eb|------------------------------------------------|



Rhythm Fig. 3b
                                                 
Eb|------------------------------------------------|
Bb|------------------------------------------------|
Gb|--------------------5----5--4----------/8-------|
Db|--4/5-----4/5-------5----5--4----------/8-------|
Ab|--------------------3----3--2--0--0--0----------|
Eb|--2/3-----2/3-----------------------------------|
                                  P.M. - >

                                             
Eb|------------------------------------------------|
Bb|------------------------------------------------|
Gb|--7~------------7--x--5~------------------------|
Db|--7~------------7--x--5~------------------------|
Ab|-------5--5--5----------------------------------|
Eb|------------------------------------------------|
          P.M. - >



Rhythm Fig. 4a
                                                
Eb|------------------------------------------------|
Bb|------------------------------------------------|
Gb|-------7----5----------7----5-------5--4~-------|
Db|------------------------------------5--4~-------|
Ab|--0----5----3--0----0--5----3--0----------------|
Eb|------------------------------------------------|


                                                 
Eb|------------------------------------------------|
Bb|--3--------3------------------------------------|
Gb|--2--------2------------------------------------|
Db|--0--------0----------0-------------------------|
Ab|-----0--3-------0--3----------3----2----1-------|
Eb|-------------------------1----------------------|



Rhythm Fig. 4b
                                                
Eb|------------------------------------------------|
Bb|------------------------------------------------|
Gb|-------7----5----------7----5-------5--4~-------|
Db|------------------------------------5--4~-------|
Ab|--0----5----3--0----0--5----3--0----------------|
Eb|------------------------------------------------|


                                              
Eb|------------------------------------------------|
Bb|--3--------3------------------------------------|
Gb|--2--------2------------------------------------|
Db|--0--------0----------0---3---------------------|
Ab|-----0--3-------0--3----------------------------|
Eb|--------------------------1---------------------|
        P.M.       P.M.


Rhythm Fig. 4c
                                                
Eb|------------------------------------------------|
Bb|------------------------------------------------|
Gb|-------7----5----------7----5-------5--4~-------|
Db|------------------------------------5--4~-------|
Ab|--0----5----3--0----0--5----3--0----------------|
Eb|------------------------------------------------|


                                                 
Eb|------------------------------------------------|
Bb|--3--------3------------------------------------|
Gb|--2--------2------------------------------------|
Db|--0--------0----------0-------------------------|
Ab|-----0--3-------0--3----------3---------2-------|
Eb|-------------------------1---------1------------|
        P.M.       P.M.    < - - - 2x - - - >



Rhythm Fig. 5
                                                
Eb|------------------------------------3--2~-------|
Bb|------------------------------------3--2~-------|
Gb|------------------------------------------------|
Db|--2---------------------------------------------|
Ab|--2---------------------------------------------|
Eb|--0----5~---3--0----0--5~---3--0----------------|


                                               
Eb|------------------------------------------------|
Bb|------------------------------------------------|
Gb|------------------------------------------------|
Db|--2---------------------------------------------|
Ab|--2-------------------------3----2----1---------|
Eb|--0----5~---3--0----0--1------------------------|



Rhythm Fig. 6
                                      
Eb|------------------------------------------------|
Bb|------------------------------------------------|
Gb|------------------------------------------------|
Db|------------------------------------------------|
Ab|--0-------0------3----2----1----0---------0-----|
Eb|------0------1-----------------------0----------|
   


                                              
Eb|------------------------------------------------|
Bb|------------------------------------------------|
Gb|------------------------------------------------|
Db|---------------------------2----3----4----------|
Ab|-------3----2----1----0----2----3----4----------|
Eb|--1------------------------0----1----2----------|




Rhythm Fig. 7
                                             
Eb|------------------------------------------------|
Bb|------------------------------------------------|
Gb|-----------------------2------------2-----------|
Db|-----------------------2------------2-----------|
Ab|-------3----2----1-----0------------0-----------|
Eb|--1---------------------------------------------|
    < - - - - 2x - - >



Riff 1

Eb|------------------------------------------------|
Bb|-(3~)-------------------------------------------|
Gb|--3~--------------------------------------------|
Db|--3~--------------------------------------------|
Ab|------------------------------------------------|
Eb|------------------------------------------------|




Riff 2

Eb|------------------------------------------------|
Bb|---------3--8b~---------------------------------|
Gb|--3---------------------------------------------|
Db|-----5------------------------------------------|
Ab|------------------------------------------------|
Eb|------------------------------------------------|







Riff 3

Eb|------------------------------------------------|
Bb|--3**~-----8**b--8**b---------------------------|
Gb|------------------------3**--5**~----(\)--------|
Db|------------------------------------------------|
Ab|------------------------------------------------|
Eb|------------------------------------------------|



Solo

Eb|-----------------------------15----15---15------|
Bb|--15------------15(\)-----17----17----17---17---|
Gb|--16------------16(\)---------------------------|
Db|------------------------------------------------|
Ab|------------------------------------------------|
Eb|------------------------------------------------|
    Tremolo pick            Let ring - - - - - - - 



Eb|--15----15----15----15--------------------------|
Bb|-----17----17----17-----------------------------|
Gb|-------------------------16----------15----14---|
Db|----------------------------15\14-13----13------|
Ab|------------------------------------------------|
Eb|------------------------------------------------|
    - - - - - - - - - - >



Eb|------------------------------------------------|
Bb|------------------------------------------------|
Gb|-----------13-----------------------------------|
Db|--13\12-11----11\---7*(\)-----------------------|
Ab|--------------------7*(\)----------7~----7--9---|
Eb|------------------------------------------------|




Eb|------------------------------------------------|
Bb|-------------------------------8----8----10-----|
Gb|----------7**~---7(9)(\)-------10b--10b--12b----|
Db|------7-9---------------------------------------|
Ab|--10--------------------------------------------|
Eb|------------------------------------------------|




Eb|------------------------------------------------|
Bb|--11----12---12-12----12-12------15p12-----12---|
Gb|--13b---14b-----14b------14b~----------15-------|
Db|------------------------------------------------|
Ab|------------------------------------------------|
Eb|------------------------------------------------|
                                   < - 8x - >


Eb|------------------------------------------------|
Bb|-------------------------------------------12~--|
Gb|--15p12-14p12----12-14p12-14b-----14p12----12~--|
Db|--------------14------------------------14------|
Ab|------------------------------------------------|
Eb|------------------------------------------------|




Eb|------------------------------------------------|
Bb|------------------------------------------------|
Gb|--14~-----13--12-11/12~----16p12~--------/14~---|
Db|------------------------------------------------|
Ab|------------------------------------------------|
Eb|------------------------------------------------|
  |                                                |
  |                                                |
  |                                                |
Eb|------------------------------------------------|
Bb|------------------------------------------------|
Gb|--10~-----9---8-7/-9~------12p9~----------------|
Db|------------------------------------------------|
Ab|------------------------------------------------|
Eb|------------------------------------------------|




Eb|------------------------------------------------|
Bb|--------13~---15~---15b-r15p13------------------|
Gb|--14~--------------------------14~-----14-16-17-|
Db|------------------------------------------------|
Ab|------------------------------------------------|
Eb|------------------------------------------------|




Eb|---------------17-20-----17-20-----------12-----|
Bb|-----17-20-20b-------20b-------20b~------15b----|
Gb|--19--------------------------------------------|
Db|------------------------------------------------|
Ab|------------------------------------------------|
Eb|------------------------------------------------|




Eb|--13----14----15--------------------------------|
Bb|--16b---17b---18b~------------------------------|
Gb|------------------------------------------------|
Db|------------------------------------------------|
Ab|-----------------------x\-----------------------|
Eb|-----------------------x\---------5\------------|
                        Pick scrape




Outro solo (w/ wah)

Eb|------------------------------------------------|
Bb|--20b-------20b-------20b-----------------------|
Gb|--------------------------------19**b----r19p17-|
Db|------------------------------------------------|
Ab|------------------------------------------------|
Eb|------------------------------------------------|



Eb|------------------------------------------------|
Bb|--------------------------------------------13--|
Gb|------------------10--9--8------10--9--8--------|
Db|--19~-------------------------------------------|
Ab|--------------/8-------------8------------------|
Eb|------------------------------------------------|



Eb|------------------------------------------------|
Bb|--13--12--11--10~-------------------------------|
Gb|------------------------------------------------|
Db|------------------------------------------------|
Ab|------------------------------------------------|
Eb|------------------------------------------------|





UNHOLY
Simmons, Vincent

[Fade in and randomly pick muted strings]
[Rhy. Fig 1a]

[Rhy. Fig 1a]
I was there through the ages
Chained snakes to their cages
I have seen you eat your own
[Rhy. Fig 2]
I'm the cycle of pain
Of a thousand year old reign

[Rhy. Fig 1a]
I'm suicide and salvation
The omen to nations
That you worship on all fours
[Rhy. Fig 3a]
I'm the infection and famine
That's knocking at your door
That's why you're feeling so

[Rhy. Fig 4a]
Unholy
Oh, I was created by man, you know I'm....
[Rhy. Fig 4b]
Unholy
Yeah, yeah, yeah, yeah

[Rhy. Fig 1a w/ Riff 1]
I am the incubus
I lay the egg in you
The worm that burrows
Through your brain
[Rhy. Fig 2]
But you are the beast
That calls me by my name

[Rhy. Fig 1b]
You send your children to war
To serve bastards and whores
So now you know
[Rhy. Fig 3b]
You created me
On the day that you were born

[Rhy. Fig 4a] (2x)
Unholy
I was created by man, yeah I'm the Lord of the flies, you know I'm
Unholy
>From the left hand of power comes the father of lies
[Rhy. Fig 4c]
Unholy - Unholy!

[Rhy. Fig 5]
[Solo over Rhy. Fig 5 (3x)]
[Rhy. Fig 6]

[Rhy. Fig 1a w/ Riff 2]
I lay you down to sleep
Your soul to keep
Better cross your heart before you die
[Rhy. Fig 3a w/ Riff 3]
And now you know
Know that you are mine
That's why you're feeling so

[Rhy. Fig 4a (3x) w/ Outro solo]
Unholy, Unholy, Unholy
[Rhy. Fig 7]
Unholy!!

2."Take it Off" - Paul Stanley, Bob Ezrin, Kane Roberts

tune down a whole step

Rhythm fig. 1a (let ring throughout)
                                                                              
D|-----------------------------------------------------------------|
A|-----------------------------------------------------------------|
F|---------2-----0--------2---------2-----0--------0---------------|
C|------2-----2--------2---------2-----2--------2------------------|
G|---0--------------0------------------------0---------------------|
D|-----------------------------------------------------------------|





Rhythm fig. 1b
                                                                                       
D|-----------------------------------------------------------------|
A|--8------------7------------5------------------------------------|
F|--7------------7------------5------------------------------------|
C|--9------------7------------5------------------------------------|
G|-----------------------------------------0--0--0--0--0--0--0--0--|
D|-----------------------------------------------------------------|
                           Light P.M. - - - - - - - - ->


Rhythm fig. 2
                                                                         
D|-----------------------------------------------------------------|
A|-------------------3---3--3--3--3---------------------3--3--3--3-|
F|-------------------2---2--2--0--0---------------------2--2--0--0-|
C|-2--------2--------0---0--0--0--0----2--2--2--2-------0--0--0--0-|
G|-3p-0--0--3p-0--0--------------------0--0--0--3p-0---------------|
D|-----------------------2--2--3--3---------------------2--2--3--3-|




Rhythm fig. 3
                                                                                         
D|-----------------------------------------------------------------|
A|------------------------------------------------3----------------|
F|--------9--------9----------9--------9----------2----------------|
C|--------9--------9----------9--------9----------0----------------|
G|--------7--------7----------7--------7---------------------------|
D|--0--0-----0--0-----0--0-------0--0------------------------------|




Rhythm fig. 4a
                                                                     
D|-----------------------------------------------------------------|
A|------10--x-x-10----x-x-10-x-x-/10~--------------10-x--x-10--x-x-|
F|------9---x-x-9-----x-x-9--x-x-/9~---------------9--x--x-9---x-x-|
C|-----------------------------------------------------------------|
G|-----------------------------------------------------------------|
D|-----------------------------------------------------------------|


                                                                       
D|---------------------------2---------------5--------7------------|
A|--10-x-x-/10~-------------------3-------------6----------8-------|
F|--9--x-x-/9~-------------------------2-----------5----------7----|
C|----------------------0------------------------------------------|
G|-----------------------------------------------------------------|
D|-----------------------------------------------------------------|
                Let ring - - - - - - - - - - - - - - - - ->








Rhythm fig. 4b
                                                                                   
D|-----------------------------------------------------------------|
A|--------------------------3------3----3--------------------------|
F|--2-----------------------0------0----0--------------------------|
C|--2-----------------------0------0----0--------------------------|
G|--0-------/-12\-----------x------x----x--------------------------|
D|----------/-12\-----------3------3----3--------------------------|



Rhythm fig. 5a
                                                                        
D|-----------------------------------------------------------------|
A|----------------------------3--3-------------------------------3-|
F|-2---2-------2-----2--------2--2-----2---2-------2-----2-------2-|
C|-2---2-------2-----2--------0--0-----2---2-------2-----2-------0-|
G|-0---0-------0-----0-----------------0---0-------0-----0---------|
D|--------3--0----------3--0------------------3--0----------3--0---|



Rhythm fig. 5b
                                                                                        
D|-----------------------------------------------------------------|
A|----------------------------------3---3-----------------3--------|
F|--2-----2--------2-------2--------2---2-----------------2--------|
C|--2-----2--------2-------2--------0---0------2----------0--------|
G|--0-----0--------0-------0-------------------2-------------------|
D|-----------3--0-------------3--0-------------0-------------------|



Rhythm fig. 6
                                                                                     
D|-----------------------------------------------------------------|
A|------5-6-5----------------------------5-6-5---------------------|
F|-5---5------5--3------------------5---5-------------5----3-------|
C|-5--5--------5-3----3-------------5--5--------------5----3-----3-|
G|-3-------------1----3-------------3-----------5h-7-------1-----3-|
D|--------------------1---1--3/-5--------------------------------1-|
  <- - - - - - - 2x - - - - - ->


                                                                                   
D|-----------------------------------------------------------------|
A|------5-6-5------------------------------------------------------|
F|--5--5-------------5-----3------5------5--7--------------------5-|
C|--5-5--------------5-----3------5------5--7--------------------5-|
G|--3----------5h-7--------1------3------3--5--5--5--5--5--5--5--3-|
D|-----------------------------------------------------------------|


                                                                                
D|-----------------------------------------------------------------|
A|-----------------------------------------------------------------|
F|-7-------------------7--9----------------------------------------|
C|-7-------------------7--9----------------------------9-9-9-9-9-9-|
G|-5-5--5--5--5--5--5--5--7-7--7--7--7--7--7--7--7--7--7-7-7-7-7-7-|
D|-----------------------------------------------------------------|


Rhythm fig. 7a (softly)
                                                                                 
D|------------------------------------------------------------------|
A|--10--10--10--10--10--10--10--10--6--6--6--8--8--8--8--8----------|
F|--9---9---9---9---9---9---9---9---5--5--5--7--7--7--7--7----------|
C|------------------------------------------------------------------|
G|------------------------------------------------------------------|
D|------------------------------------------------------------------|


Rhythm fig. 7b (softly)
                                                                         
D|------------------------------------------------------------------|
A|--8--8--8--8--8--8--8--8--6--6--6--8--8--8--8--8------------------|
F|--7--7--7--7--7--7--7--7--5--5--5--7--7--7--7--7------------------|
C|------------------------------------------------------------------|
G|------------------------------------------------------------------|
D|------------------------------------------------------------------|



Rhythm fig. 7c
                                                                            
D|------------------------------------------------------------------|
A|--10--10--10--10--10--10--10--10------3------3----3---------------|
F|--9---9---9---9---9---9---9---9-------0------0----0---------------|
C|--------------------------------------0------0----0---------------|
G|--------------------------------------x------x----x---------------|
D|--------------------------------------3------3----3---------------|
  Crescendo


Rhythm fig. 8a
                                                                                        
D|------------------------------------------------------------------|
A|------------------------------3--------7-------------------5----7-|
F|-2----2-------2------2--------0-------------7---------7-----------|
C|-2----2-------2------2--------0------------------7----------------|
G|-0----0-------0------0--------x-----------------------------------|
D|---------3--0-----------3--0--3-----------------------------------|


                                                           
D|------------------------------------------------------------------|
A|------------------------------------------------------------------|
F|--2--------2------------------------------------------------------|
C|--2--------2------------------------------------------------------|
G|--0--------0------------------------------------------------------|
D|------------------------------------------------------------------|



Rhythm fig. 8b
                                  
D|--------------------------------|
A|--------------------------------|
F|--7-----------------------------|
C|-------7---------7----7----7----|
G|------------9-------------------|
D|--------------------------------|



Solo
                                                                                               
D|-------17-17----17-----------17----------17---------------------------------|
A|-20b--------20b---20p17-20b----20p17-20b---20p17-20b-17h20p17--17-----------|
F|-------------------------------------------------------------19--19p17--19p-|
C|----------------------------------------------------------------------19----|
G|----------------------------------------------------------------------------|
D|----------------------------------------------------------------------------|


                                                                                      
D|----------------------------------------------------------------------------|
A|----------------------------------------------------------------------------|
F|-17~----------5-7--8--7--5--8--7--5~----------------------------------------|
C|------------7---------------------------------------------------------------|
G|-------19\---------------------------3**p0--5**p0--7**p0-3**p0--5**p0--7**p0|
D|-------19\------------------------------------------------------------------|


                                                                          
D|----------------------------------------------------------------------------|
A|------------------------------------------------8~-8~-8~-8~-8~-8~-8~--------|
F|----------------------------------0**--2**------9~-9~-9~-9~-9~-9~-9~--------|
C|-----0h2p0------------------------------------------------------------------|
G|--3---------3h5p3~----------------------------------------------------------|
D|---------------------------3b**---------------------------------------------|


                                                                    
D|----------------------------------------------------------------------------|
A|--15b-----15p13-------------------------------------------------------------|
F|----------------14--------------12----14----12------------------------------|
C|------------------------12h14------14----14----14-13-12-10~-----------------|
G|----------------------------------------------------------------------------|
D|----------------------------------------------------------------------------|


                                                               
D|-------5--------------------------------------------------17----------------|
A|-----5---8p5----------------------------------------17h20-----20b~----------|
F|--7b---------8-7-5----------------------------------------------------------|
C|---------------------7p5----------------------------------------------------|
G|--------------------------5h7p--5--3h5p3------------------------------------|
D|------------------------------------------3h5p3-----------------------------|


                                                         
D|------17-------17-----17-------17-----17-------20b--20~---------------------|
A|---------20p17----20b----20p17----20b----20p17------------------------------|
F|----------------------------------------------------------------------------|
C|----------------------------------------------------------------------------|
G|----------------------------------------------------------------------------|
D|----------------------------------------------------------------------------|


                                                                                      


D|----17-------17-------------------------------------------------------------|
A|-------20p17------17--------------------------------------------------------|
F|-19b--------------19b-x-7b-x-(7)-x-(7)-x-(7)-5h7--5~------------------------|
C|----------------------------------------------------------------------------|
G|----------------------------------------------------------------------------|
D|----------------------------------------------------------------------------|
   < - - 3x - - >          Slowly release bend
                     while "chicken picking"



Riff 1

D|--------------------------------------------------------20b--20~------------|
A|--20--20-----17--17-20p-17----17-20p-17----17-20b~--------------------------|
F|--19b-19b----19b-----------19-----------19----------------------------------|
C|----------------------------------------------------------------------------|
G|----------------------------------------------------------------------------|
D|----------------------------------------------------------------------------|


Riff 2

D|----------------------------------------------------------------------------|

A|--15b---15-13-15-13------------------------------8--------------------------|
F|--------------------14-12-14-12------------------7b-7r-7b-7r-7b-7r-7b-7r----|
C|--------------------------------14-12-10~-----------------------------------|
G|----------------------------------------------------------------------------|
D|----------------------------------------------------------------------------|
                                        Pick only once


Riff 3

D|--17--17-17-17-17-----------------------------------------------------------|
A|--20b---------------20p-17--------------8----8----8-------------------------|
F|---------------------------19-17~-------7b---7b---7b---5-7p-5---5-----------|
C|--------------------------------------------------------------7---7-5-------|
G|----------------------------------------------------------------------7-5-3-|
D|----------------------------------------------------------------------------|
   <- - - 4x - - ->



D|----------------------------------------------------------------------------|
A|--/8-8-8-8~--/8-8-8-8~---13~---13~--13~--13~--13~---------------------------|
F|---9-9-9-9~---9-9-9-9~------14~--14~--14~--14~--14\-------------------------|
C|----------------------------------------------------------------------------|
G|----------------------------------------------------------------------------|
D|----------------------------------------------------------------------------|
                     Let ring - - - - - - - - >


D|-------------------------------------------------17-------------------------|
A|--13---15---13---15p-13-15-13h-15p-13~---------17---20p-17---20p-17---------|
F|----14---14---14----------------------------19b------------19-------19~-----|
C|----------------------------------------------------------------------------|
G|----------------------------------------------------------------------------|
D|----------------------------------------------------------------------------|


Take it off
Stanley, Ezrin, Roberts

[Intro: Rhy. fig 1a (2x)]
[Rhy. fig 1a (3x) & 1b]
[Rhy. fig 2]

[Rhy. fig 2]
Well my mind is gettin dirty yeah around eleven thirty, uh-huh
I wanna watch some asses shakin to the noise the boys are makin
uh-huh
So, ihop into my car, hit the local titty bar, uh-huh
丘ause that叫 my kind of situation when I need some perspiration
uh-huh

[Rhy. fig 3]
I do my one-stop shopping 
For the girl of my dreams
Cos I can always be sure that she叫 as good as she seems

[Rhy. fig 4a]
Take it off, give it to me
Take it off, like you卡 do me
I wanna see what叫 inside
Cos you got nothing to hide

[Rhy. fig 4a]
Take it off pretty baby
Take it off, drive me crazy
You know you make me so hot
I wanna see what you got
Take it off
[Rhy. fig 2]

[Rhy. fig 2]
Wave your panties in the air, lick your lips and shake your hair
Uh-huh
Ooh, when you spread a little oil, yeah, my heart begins to boil
Uh-huh

[Rhy. fig 3]
Yeah, it叫 so hard to choose
When you all look so fine
But I got nothing to lose but my money and my mind

[Rhy. fig 4a]
Take it off, give it to me
Take it off, like you卡 do me
I wanna see what叫 inside
Cos you got nothing to hide

[Rhy. fig 4b with Riff 1]

[Rhy. fig 4]
Take it off pretty baby
Take it off, drive me crazy
You know you make me so hot
I wanna see what you got
Take it off
[Rhy. fig 5a]
[Rhy. fig 5b]

[Solo over Rhy. fig 2]

[Rhy. fig 6]
Ooh, move your sweet body closer
(I want to be alone with you)
Yeah, come on and be my fantasy
(There叫 so much you and I could do)
Oh, you叵e so near I can taste you
(You叵e teasin me, you叵e pleasin me)
(Aah) I know you叵e dancin just for me
Just for me

[Rhy. fig 7a]
Take it off, pretty baby
[Rhy. fig 7b]
Take it off, drive me crazy
[Rhy. fig 7b]
You know you make me so hot
I wanna see what you got
[Rhy. fig 7c]
Take it off, pretty baby

[Rhy. fig 4a with Riff 2]
Take it off, give it to me
Take it off like you卡 do me
Girl, you got nothing to hide
Now lemme see what叫 inside
Take it off, take it off, take it off

[Rhy. fig 5 with Riff 3]
[Rhy. fig 8a & 8b]

3. Tough Love - Stanley, Bruce Kulick,Bob Ezrin

tune down one whole step

Rhythm fig. 1
                                                                             
D|-----------------------------------------------------------------------|
A|-----------------------------------------------------------------------|
F|----------------5------------------------5-----------------------------|
C|--------------------7----------------------7~--------------------------|
G|--3-3-5-5-6-6-7--------------3-3-5-5-6-7-------------------------------|
D|-----------------------------------------------------------------------|
    P.M. - - - ->                P.M. - - ->





Rhythm fig. 2
                                                                           
D|-----------------------------------------------------------------------|
A|-------------------------------------------------3---------------------|
F|----------------5------------------------5-------0---------------------|
C|--------------------7----------------------7~----0---------------------|
G|--3-3-5-5-6-6-7--------------3-3-5-5-6-7---------x---------------------|
D|-------------------------------------------------3---------------------|
    P.M. - - - ->                P.M. - - ->


Rhythm fig. 3
                                                                
D|-----------------------------------------------------------------------|
A|-----------------------------------------------------------------------|
F|-----------------------------------------------------------------------|
C|-------------------------2---------------------------------------------|
G|-----------------------5-2---------------------------------------------|
D|---7-6-5-3-5-3-5-3-5/7---0-------0--0-0-0--0-0-0--0-0-0--0-0-----------|
          P.M.                  P.M. - - - - - - - - - - ->

                                                                
D|-----------------------------------------------------------------------|
A|-----------------------------------------------------------------------|
F|------------------------5----------------------------------------------|
C|------------------------5----------------------------------------------|
G|----------------------5-3-------3--3-3-3--3-3-3--3-3-3--3-3------------|
D|--7-6-5-3-5-3-5-3-5/7--------------------------------------------------|
         P.M.                  P.M. - - - - - - - - - - ->


Rhythm fig. 4a
                                                                                   
D|-----------------------------------------------------------------------|
A|-----------------------------------------------------------------------|
F|-4------------------------5--------5--5---5---4------------------------|
C|-4------------------------5--------5--5---5---4------------------------|
G|-2------0-2----0-2-0---0--3------0-3--3---3---2-------0-2----0-2-0---0-|
D|------2------2-------2---------3--------------------2------2-------2---|
        P.M. - - - - - - >       P.M.                 P.M. - - - - - - >

                                                                               
D|-----------------------------------------------------------------------|
A|-----------------------------------------------------------------------|
F|-5-----------------5---4--------------------------5---------5--5---5---|
C|-5---------2---5---5---4--------------------------5---------5--5---5---|
G|-3---12\---2---5---3---2-------0-2----0-2-0---0---3-------0-3--3---3---|
D|-----12\---0---3-------------2------2-------2-----------3--------------|
                         P.M. - - - - - - ->        P.M.

                                                                                         
D|-----------------------------------------------------------------------|
A|-----------------------------------------------------------------------|
F|--7--------7--7--7--7---9--9--9--9--9----------------------------------|
C|--7--------7--7--7--7---9--9--9--9--9----------------------------------|
G|--5--------5--5--5--5---7--7--7--7--7-----12\--------------------------|
D|------------------------------------------12\--------------------------|




Rhythm fig. 4b
                                                                  
D|-----------------------------------------------------------------------|
A|-----------------------------------------------------------------------|
F|--4----------5----------5--5h7p5----4---------5------------------5-----|
C|--4----------5------5/7-------------4---------5----------2---5---5-----|
G|--2----------3----------------------2---------3----12\---2---5---3-----|
D|---------------------------------------------------12\---0---3---------|
                Let ring - ->
                                                                                         
D|-----------------------------------------------------------------------|
A|-----------------------------------------------------------------------|
F|-4----------5----------7--------7--7--7--7---9--9--9--9--9-------------|
C|-4----------5----------7--------7--7--7--7---9--9--9--9--9-------------|
G|-2----------3----------5--------5--5--5--5---7--7--7--7--7-----12\-----|
D|---------------------------------------------------------------12\-----|



Rhythm fig. 5a
                                                                   
D|-----------------------------------------------------------------------|
A|----------/10-----10\--------------------------------------------------|
F|----------/9------9\-------------/10----10\----------------------------|
C|--7--5--7----------------7--5--7-/10----10\----------------------------|
G|--7--5--7----------------7--5--7---------------------------------------|
D|-----------------------------------------------------------------------|
    P.M. ->                P.M. ->

 


Rhythm fig. 5b
                                                                          
D|-----------------------------------------------------------------------|
A|--10---8---10----8--8/10-----10---8---10----8--8/10--------------------|
F|--9----7---9-----7--7/9------9----7---9-----7--7/9---------------------|
C|-----------------------------------------------------------------------|
G|-----------------------------------------------------------------------|
D|-----------------------------------------------------------------------|


Rhythm fig. 6
                                                                     
D|-----------------------------------------------------------------------|
A|-----------------------------------------------------------------------|
F|-----------------------------------------------------------------------|
C|-----------------------------------------------------------------------|
G|-----------------------------------------------------------------------|
D|--7-6-5-0-3-5---7-6-5-0-3-5--------------------------------------------|



Rhythm fig. 7a
                                                                                     
D|-----------------------------------------------------------------------|
A|-----------------------------------------------------------------------|
F|-8--------8------6---6--6--6--6--6--6--6---5-3-0-5-3--0-5-3-0-5--5-5-5-|
C|-8--------8--10--6---6--6--6--6--6--6--6---5-3-0-5-3--0-5-3-0-5--5-5-5-|
G|-6---8/10--------4---4-------------------------------------------------|
D|-----------------------------------------------------------------------|


                                                                               
D|-----------------------------------------------------------------------|
A|-----------------------------------------------------------------------|
F|-5-3-0-5-3---6----7-----8------------8------6-----6--6--6--6--6--6--6--|
C|-5-3-0-5-3---6----7-----8------------8--10--6-----6--6--6--6--6--6--6--|
G|-------------4----5-----6-------8/10--------4-----4--------------------|
D|-------------4----5----------------------------------------------------|


                                                                             
D|-----------------------------------------------------------------------|
A|-----------------------------------------------------------------------|
F|---5-3-0-5-3--0-5-3-0-5--5-5-5---5-3-0-5-3---5-------------------------|
C|---5-3-0-5-3--0-5-3-0-5--5-5-5---5-3-0-5-3---5----5--------------------|
G|---------------------------------------------3----5--------------------|
D|--------------------------------------------------3--------------------|



Rhythm fig. 7b
                                                                                     
D|-----------------------------------------------------------------------|

A|-----------------------------------------------------------------------|
F|-8---------8------6------------------------5-3-0-5-3--0-5-3-0-5--5-5-5-|
C|-8---------8--10--6---6--------------------5-3-0-5-3--0-5-3-0-5--5-5-5-|
G|-6----8/10--------4---4------------------------------------------------|
D|-------------------------1--1--2--2--3---------------------------------|
                     P.M. - - - - >

                                                                               
D|-----------------------------------------------------------------------|
A|-----------------------------------------------------------------------|
F|--5-3-0-5-3---6----7-----8------------8------6-------------------------|
C|--5-3-0-5-3---6----7-----8------------8--10--6----6--------------------|
G|--------------4----5-----6-------8/10--------4----4--------------------|
D|--------------4----5---------------------------------1--1--2--2--3--3--|
                                         P.M. - - - - - >

                                                                             
D|-----------------------------------------------------------------------|
A|-----------------------------------------------------------------------|
F|---5-3-0-5-3--0-5-3-0-5--5-5-5---5-3-0-5-3---5-------------------------|
C|---5-3-0-5-3--0-5-3-0-5--5-5-5---5-3-0-5-3---5----5--------------------|
G|---------------------------------------------3----5--------------------|
D|--------------------------------------------------3--------------------|



Rhythm fig. 8
                                                                                     
D|-----------------------------------------------------------------------|
A|-----------------------------------------------------------------------|
F|---------------------------------------------------5----------------5--|
C|-2--------------0-2--------------------------------5--------------0-5--|
G|-2----2p0---0h2---2--------------------------------3----2p0---0h2---3--|
D|-0--------3-------0---0--0-0-0--0-0-0--0-0-0--0-0-----------3----------|
                  P.M. - - - - - - - - - - - >

                                
D|-----------------------------------------------------------------------|
A|-----------------------------------------------------------------------|
F|-----------------------------------------------------------------------|
C|-----------------------------------------------------------------------|
G|--3--3-3-3--3-3-3--3-3-3--3-3------------------------------------------|
D|-----------------------------------------------------------------------|
   P.M. - - - - - - - - - - - >



Solo (with slide)

D|-----------------------------------------------------------------------|
A|-----------------------------------------------------------------------|
F|-------------------------------------------------9\----8\----7\--------|
C|--/12--\--------------5**---7**----5----------/7----/6----/5---5\------|
G|--/12--\--------7-5-7------------7----7**------------------------------|
D|-----------------------------------------------------------------------|
                P.M.


D|-----------------------------------------------------------------------|
A|---/19--------16~------------------------------------------------------|
F|---/19--------16~------------------------------------------------------|
C|-----------------------------------------------------------------------|
G|-----------------------------------------------------------------------|
D|-----------------------------------------------------------------------|


Riff 1

D|-----------------------------------------------------------------------|
A|-----------------------------------------------------------------------|
F|--11---11---11**---9-11-12~------------------13----13----13----13------|
C|-----9----9------------------10**~--------------14----14----14----14---|
G|-----------------------------------------------------------------------|
D|-----------------------------------------------------------------------|



D|--12--12--12--12--12--12--12-------------------------------------------|
A|--15b-15b-15b-15b-15b-15b-15b~-----------------------------------------|
F|-----------------------------------------------------------------------|
C|-----------------------------------------------------------------------|
G|-----------------------------------------------------------------------|
D|-----------------------------------------------------------------------|
    hold bend - - - - - - >


Riff 2

D|-----------------------------------------------------------------------|
A|--20b~---------8b**--8-5-----------------------------------------------|
F|-------------------------7-5-------------------------------------------|
C|-----------------------------7-7---------------------------------------|
G|-----------------------------------------------------------------------|
D|-----------------------------------------------------------------------|
                A.H. - - - >



Riff 3

D|--17--------------------20(/\)(/\)-------------------------------------|
A|--20b---20p-17----20b--------------------------------------------------|
F|---------------19------------------------------------------------------|
C|-----------------------------------------------------------------------|
G|---------------------------------------x\------------------------------|
D|---------------------------------------x\------------------------------|
         < - - 3x - - >


Outro solo

D|--20b-20~----17-20p-17----17-------------------------------------------|
A|-----------------------20----20-17h-20p-17----20p-17----17-------------|
F|-------------------------------------------19--------19----19p-17------|
C|------------------------------------------------------------------19---|
G|-----------------------------------------------------------------------|
D|-----------------------------------------------------------------------|



D|-----------------------------------------------------------------------|
A|------------------8**-----8**------------------------------------------|
F|-------------7b**----7b**-----7r-7p-5----------------------------------|
C|--------------------------------------7~------5------------------------|
G|--(\/)15-----------------------------------------7-5-3-----------------|
D|-------------------------------------------------------5~--------------|
            Hold bend ->


D|-----------------------------------------------------------------------|
A|-----------------------------------------------------------------------|
F|---7b**-5**~----------------------5**----------------------------------|
C|-------------------------5**----------7**------------------------------|
G|-----------------------------7**---------------------------------------|
D|-----------------------------------------------------------------------|







TOUGH LOVE
Stanley, Kulick, Ezrin

[Intro: Rhy. fig 1]
[Rhy. fig 2]

[Rhy. fig 3]
I wanna take you down
Until the morning light
Why don另 you come around
And let mr treat you right

[Rhy. fig 4a & 4b]
I叮 the one who gave you what you卡 never had
You said I should .. be gentle and be good
But, hoped the hell I would be bad

[Rhy. fig 5a & 5b]
I wanna take you
Baby gonna make you
[Rhy. fig 1]
Gimme, tough love
[Rhy. fig 5a & 5b]
C叮on and please me
Take your time and tease me
[Rhy. fig 1]
Gimme, tough love
[Rhy. fig 6]

[Rhy. fig 3]
I tie you to the rings
I feel your fever rise
We love to do the things
That others fantasize

[Rhy. fig 4a & 4b]
And then .. you smile and bring me to my knees
But when I try a gentle lullaby
I swear I hear you sighing please

[Rhy. fig 5a & 5b]
I wanna take you
Baby gonna make you
[Rhy. fig 1]
Gimme, tough love
[Rhy. fig 5a & 5b]
C叮on and please me
Take your time and tease me
[Rhy. fig 1]
Gimme, tough love

[Rhy. fig 7a & 7b]
I never knew how much I needed you till now
But now I know, and tonight I叮 gonna show you how

[Solo over Rhy. fig 8]

[Rhy. fig 4a & 4b with Riff 1]
And then, I smile and bring you to your knees
And though I try a gentle lullaby
I swear I hear you sighing please

[Rhy. fig 5a & 5b]
I wanna take you
Baby gonna make you
[Rhy. fig 1 with Riff 2]
Gimme, tough love
[Rhy. fig 5a & 5b]
C叮on and please me
Take your time and tease me
[Rhy. fig 1 with Riff 3]
Gimme, tough love

[Outro solo over Rhy. fig 5a & 5b]
[Rhy. fig 1] (2x)

4.Spit - Simmons, Scott Van Zen, Stanley

tune down 1/2 step

Intro
                                                                               
Eb|---------------------------------------------------------------|
Bb|---------------------------------------------------------------|
Gb|---------------------------------------------------------------|
Db|------0--------------------------------------------------------|
Ab|--0h2---2-1-0--------------------------------------------------|
Eb|--------------3~-----------------------------------------------|



Rhythm fig. 1a
                                                                                 
Eb|---------------------------------------------------------------|
Bb|---------------------------------------------------------------|
Gb|---------------------------------------------------------------|
Db|--2------------------2-----------------------------------------| 
Ab|--2------------------2-----------------------------------------| 
Eb|--0------------------0-----------------------------------------| 


Rhythm fig. 1b

Eb|---------------------------------------------------------------|
Bb|---------------------------------------------------------------|
Gb|---------------------------------------------------------------|
Db|--2------------------2--------5--------------------------------|
Ab|--2------------------2--------5--------------------------------|
Eb|--0------------------0--------3--------------------------------|



Rhythm fig. 2a
                                                                                       
Eb|---------3--------------------------3--------------------------| 
Bb|---------2--------------------------2--------------------------| 
Gb|---------------------------------------------------------------| 
Db|--------------2p0-----------------------x-x-x--x-x-x-----------| 
Ab|------------------2--0------------------x-x-x--x-x-x-----------| 
Eb|--0-0--0---------------3~----0-0--0-----x-x-x--x-x-x-----------| 
     P.M.->               P.M.->

                                                                    
Eb|---------3----------------------------3------------------------|
Bb|---------2----------------------------2------------------------|
Gb|---------------------------------------------------------------|
Db|------------------0-----0-2---------------x-x-x--x-5\4---------| 
Ab|--------------0h2---0h2-------------------x-x-x--x-5\4---------|
Eb|--0-0--0-----------------------0-0--0-----x-x-x--x-3\2---------|
     P.M.->                       P.M.->


Rhythm fig. 2b
                                                                                       
Eb|---------3--------------------------3--------------------------| 
Bb|---------2--------------------------2--------------------------| 
Gb|---------------------------------------------------------------| 
Db|--------------2p0-----------------------x-x-x--x-x-x-----------| 
Ab|------------------2--0------------------x-x-x--x-x-x-----------| 
Eb|--0-0--0---------------3~----0-0--0-----x-x-x--x-x-x-----------| 
     P.M.->                P.M.->

                                                               
Eb|---------3----------------------------3------------------------|
Bb|---------2----------------------------2------------------------|
Gb|---------------------------------------------------------------|
Db|------------------0-----0-2----------------2----5--------------|
Ab|--------------0h2---0h2--------------------2----5--------------|
Eb|--0-0--0-----------------------0-0--0------0----3--------------|
     P.M.->                       P.M.->


Rhythm fig. 3
                                                                 
Eb|---------------------------------------------------------------|
Bb|---------------------------------------------------------------|
Gb|--2------------------------3--2---------------------------5--4-|
Db|--2------------------------3--2---------------------------5--4-|
Ab|--0--0-0-0-0-0-0-0-0-0-0-0-1--0-----0-0-0-0-0-0-0-0-0-0-0-3--2-|
Eb|---------------------------------------------------------------|
        P.M. - - - - - - - ->          P.M. - - - - - - - ->

                                                                            
Eb|---------------------------------------------------------------|
Bb|---------------------------------------------3-----------------|
Gb|--------------------------2--4---------------2-----------------|
Db|--------------------------2--4---------------0-----------------|
Ab|----2-2-2-2-2-2-2-2-2-2-2-0--2-----2-2-2-2-2-------------------|
Eb|---------------------------------------------------------------|
       P.M. - - - - - - - ->          P.M. - ->


Rhythm fig. 4
                                                                                       
Eb|---------3-----------------------------------------------------| 
Bb|---------3---------------------------2-------------------------| 
Gb|-------------------------------------0-------------------------| 
Db|--------------2p0---2--2----------------------0----------------| 
Ab|------------------2-----------0-0--0------0h2---2p0------------| 
Eb|--0-0--0-----------------3b-------------------------3----------| 
     P.M.->                      P.M.->


                      End 1          End 2
                                                                       
Eb|--------3-----------------|-------------3------|---------------|
Bb|--------3-----------------|--------2----3---3--|---------------|
Gb|--------------------------|--------0----0---2--|-4---2---------| 
Db|------------2p0---2--2----|-------------0---0--|-4---2---5---4-| 
Ab|----------------2---------|-0-0--0------x------|-2---0---5---4-| 
Eb|-0-0--0----------------3b-|-------------3------|---------3---2-| 
    P.M.->                       P.M.->


End 3             End 4
                                                                         
Eb|-------------------|-------------------------------------------|
Bb|-------------------|-8p7--8p7----8p7--8p7----------------------|
Gb|--4---5----6---7---|-7-7--7-7----7-7--7-7----------------------|
Db|--4---5----6---7---|-0-0--0-0----0-0--0-0--------0---------2-2-|
Ab|--2---3----4---5---|-------------------------0h2---2-0-----2-2-|
Eb|-------------------|-----------------------------------3~--0-0-|


Rhythm fig. 5 (two guitars arranged for one)
                                                                                          
Eb|---------------------------------------------------------------| 
Bb|---------------------------------------------------------------| 
Gb|---------------------------------------------------------------| 
Db|---------------------------------------------------------------| 
Ab|-------------------------------2/4-4--2/4---2/4-4--2/4---------| 
Eb|---3/5-5--3/5---3/5-5--3/5-----3/5-5--3/5---3/5-5--3/5---------| 

                                                                          
Eb|------------------------3---------------------3p2-2-3p2-2-3p2--|
Bb|------------------------3---------------------3-3-3-3-3-3-3-3--|
Gb|------------------------0--------------------------------------|
Db|------------------------0--------------------------------------|
Ab|--2-----2--2-----2------x------2-----2--2----------------------|
Eb|----3-0------3-0---3-0--3--------3-0------3-0------------------|
     P.M. - - - - - - >           P.M. - - - >


Rhythm fig. 6
                                                                                           
Eb|----3p2---3p2---3p2-3p2---3p2---3p2-3p2---3p2------------------|
Bb|----3-3---3-3---3-3-3-3---3-3---3-3-3-3---3-3------------------| 
Gb|---------------------------------------------------------------| 
Db|---------------------------------------------------------------| 
Ab|---------------------------------------------------------------| 
Eb|---------------------------------------------------------------|


Solo 1

Eb|-------------------------------12\---------------------0(\/)---|
Bb|--12~-------------12~--15b~----12\-----------------------------|
Gb|------13~------13~---------------------------------------------|
Db|----------14~--------------------------------------------------|
Ab|---------------------------------------------------------------|
Eb|---------------------------------------------------------------|
                              Whammy bar madness   3 dips



Eb|---------------------------------------------------------------|
Bb|---------------------------------------------------------------|
Gb|--/13~--11h13p11\9----1~--3~--4~-------------------------------|
Db|---------------------------------------------------------------|
Ab|---------------------------------------x\----------------------|
Eb|---------------------------------------x\----------------------|
                                 Pick scrape


Solo 2

Eb|-------17-------17-----------------17---20p17----20p17---------|
Bb|--17------20p17-----20-17h20p17---------------20-------20------|
Gb|--19b---------------------------19-----------------------------|
Db|---------------------------------------------------------------|
Ab|---------------------------------------------------------------|
Eb|---------------------------------------------------------------|
                < - - - 3x - - - >   < - - - 2x - - - >



Eb|--20b-20~------------------------------------------------------|
Bb|-------------------------------------------pb15-15r--------15~-|
Gb|------------7/9-9-9-9\7-7-7-7/9-9/12\9~-------------14b-12-----|
Db|---------------------------------------------------------------|
Ab|---------------------------------------------------------------|
Eb|---------------------------------------------------------------|


Eb|-----------15--------------------------------------------------|
Bb|--12h13h15------15p13p12---------------------------------------|
Gb|-------------------------12~---/12-12-12-11-11-11-11-9-9-9-9---|
Db|---------------------------------------------------------------|
Ab|---------------------------------------------------------------|
Eb|---------------------------------------------------------------|
    < - - - - - 2x - - - - - >



Eb|---------------------------------------------------------------|
Bb|---------------------------------------------------------------|
Gb|--7-9b-9r~-----9--11--12--11-9h-11p-9-t21(**)------------------|
Db|---------------------------------------------------------------|
Ab|---------------------------------------------------------------|
Eb|---------------------------------------------------------------|
                                 Tap harmonic


Eb|---------------------------------------------------------------|
Bb|--12---14---15-------------------------------------------------|
Gb|--14b--16b--17b~-----------------------------------------------|
Db|---------------------------------------------------------------|
Ab|---------------------------------------------------------------|
Eb|---------------------------------------------------------------|



Riff 1

Eb|--19----19-19--19----19-19-19----------------------------------|
Bb|--22b----------22b---------------22b~--------------------------|
Gb|---------------------------------------------------------------|
Db|---------------------------------------------------------------|
Ab|---------------------------------------------------------------|
Eb|---------------------------------------------------------------|
    < - - - - - - 2x - - - - - >


Outro solo

Eb|--------------------------------------17b-17r-15----15-17b-17r-|
Bb|--15-17p15----17p15-------15b**------------------17------------|
Gb|-----------16-------16-----------------------------------------|
Db|---------------------------------------------------------------|
Ab|---------------------------------------------------------------|
Eb|---------------------------------------------------------------|
        < - - - 2x - - - >



Eb|--15-17b-17r-15----15--17---19---20---22b~---------------------|
Bb|----------------17---------------------------------------------|
Gb|---------------------------------------------------------------|
Db|----------------------------------------------0(\)-------------|
Ab|---------------------------------------------------------------|
Eb|---------------------------------------------------------------|
                                       Depress whammy



Eb|----------------------------10------10-------------------------|
Bb|--3(5)----------------------10------10---------12-14-12-14b^---|
Gb|-------2(4)--0(2)---------------12-----12------12-14-12-14b^---|
Db|------------------0------------------------/14-----------------|
Ab|---------------------------------------------------------------|
Eb|---------------------------------------------------------------|



Eb|---------------------------------------------------------------|
Bb|--14r--12------15-12----12-15-12-------------------------------|
Gb|--14r--12------------14----------14~---------------------------|
Db|---------------------------------------------------------------|
Ab|---------------------------------------------------------------|
Eb|---------------------------------------------------------------|
               < - - - - 2x - - - - >






SPIT
Gene Simmons, Paul Stanley, Van Zen

[Intro]

[Rhy. Fig 1a]
I got no manners and I'm not too clean 
But I know what I like, if you know what I mean 
What'll people say? Well mister cantcha see 
It don't mean spit to me 

[Rhy. Fig 2a]

[Rhy. Fig 1a]
Hot damn, Lord above, I want a lotta woman with a lotta love 
Well, thin is in, but it's plain to see, it don't mean spit to me 

[Rhy. Fig 2b]

[Rhy. Fig 3]
I need: big hips, sweet lips, make a man outta me 
The bigger the cushion, the better the pushin' - most definitely 

[Rhy. Fig 4 with End 1]
(I need a whole lotta woman) To keep me satisfied 
(I need a whole lotta woman) Baby, for ride after ride after ride 
[Rhy. Fig 4 with End 2]
(I need a whole lotta woman) Yeah, 'cause what you are is what you eat 
And I need something sweet 

[Rhy. Fig 1b]
Lock the windows, close the doors, then she get down on all fours 
Let the neighbors talk, but can't you see, it don't mean spit to me 

[Rhy. Fig 5]
No! Oh yeah! 
[Rhy. Fig 6]


[Rhy. Fig 4 with End 1]
(I need a whole lotta woman) Yes I do, to keep me satisfied 
(I need a whole lotta woman) 
Yeah yeah, yeah yeah, yeah, for ride after ride after ride 
[Rhy. Fig 4 with End End 2]
(I need a whole lotta woman) 
I'm tellin' you, 'cause what you are is what you eat 
And I need something sweet (I want somethin') 

[Solo 1] (see comments)
[Solo 2 over Rhy. Fig 5]
[Rhy. Fig 6]

[Rhy. Fig 4 with End 1]
never did, never will 
(I need a whole lotta woman) Yeah, 'cause meatless girls don't satisfy me 
(I need a whole lotta woman) Mama mama, for ride after ride after ride 
[Rhy. Fig 4 with End 3 with Riff 1]
(I need a whole lotta woman) Yeah, that's right, what you are is who you eat 
And I need something 
[Rhy. Fig 4 with End 1 with Outro solo]
(I need a whole lotta woman) Oh, I need a whole lotta woman 
(I need a whole lotta woman) Hey, Bruce
[Rhy. Fig 4 with End 4] 
(I need a whole lotta woman) Yeah yeah, oh oh oh

5.God Gave Rock'n Roll To You II - Russ Ballard, Stanley, Simmons, Ezrin

tune down 1/2 step

Rhythm Fig. 1a (clean electric)
                                                                                        
Eb|--5-----6-----3-----4-----2-----3-----3-----3-----5-----6------|
Bb|--6-----6-----4-----4-----3-----3-----3-----4-----6-----6------|
Gb|--5-----6-----3-----4-----2-----3-----4-----5-----5-----6------|
Db|---------------------------------------------------------------|
Ab|---------------------------------------------------------------|
Eb|---------------------------------------------------------------|




Rhythm Fig. 1b (clean electric)
                                                                                             
Eb|-5-----------6-----------3-----------4-----------2-----------3-|
Bb|-6-----------6-----------4-----------4-----------3-----------3-|
Gb|-5-----------6-----------3-----------4-----------2-----------3-|
Db|---3-3-3-3-3---3-3-3-3-3---1-1-1-1-1---1-1-1-1-1---0-0-0-0-0---|
Ab|---------------------------------------------------------------|
Eb|---------------------------------------------------------------|


                                                                                 
Eb|-----------3-----------3-------------5------------6------------|
Bb|-----------3-----------4-------------6------------6------------|
Gb|-----------4-----------5-------------5------------6------------|
Db|-0-0-0-0-0---0-0-0-0-0----5-5-5-5-5-----3-3-3-3-3----3-3-3-3-3-|
Ab|---------------------------------------------------------------|
Eb|---------------------------------------------------------------|



Rhythm Fig. 2a
                                                                                      
Eb|---------------------------------------------------------------|
Bb|--3------3-------3-------4-------6-------11--------------------|
Gb|--2------3-------4-------5-------5-------10-------7-------12---|
Db|--0------0-------3-------5-------3-------8--------5-------10---|
Ab|---------------------------------------------------------------|
Eb|---------------------------------------------------------------|


                                                                                         
Eb|---------------------------------------------------------------|
Bb|---------------------------------------------------------------|
Gb|--9-------14---------------------------------------------------|
Db|--7-------12--------5----5----5--5--5--5-----------------2--3--|
Ab|--------------------5----5----5--5--5--5-----2--3--5--5--------|
Eb|--------------------3----3----3--3--3--3-----------------------|



Rhythm Fig. 2b 
                                                                                        
Eb|---------------------------------------------------------------|
Bb|--15-----15------15------16------13------15---------15------16-|
Gb|--14-----15------16------17------14------15---------16------17-|
Db|---------------------------------------------------------------|
Ab|---------------------------------------------------------------|
Eb|---------------------------------------------------------------|


                                                                                      
Eb|---------------------------------------------------------------|
Bb|-----14--------18----------12--------12------------------------|
Gb|-----14--------19----------12--------12------------------------|
Db|---------------------------------------------------------------|
Ab|---------------------------------------------------2--2--3--5--|
Eb|---------------------------------------------3--5--------------|




Rhythm Fig. 3
                                                                               
Eb|---------------------------------------------------------------|
Bb|------1-------------3-------1-------------3--------1-----------|
Gb|---0-----0-------0-------------2-------0--------------2--------|
Db|--------------0----------2----------0-----------3--------6---8-|
Ab|-3----------2----------0---------------------------------6---8-|
Eb|----------------------------------3----------1-----------4---6-|


                                                                             
Eb|---------------------------------------------------------------|
Bb|-------------------------1-------------3-------1-------------3-|
Gb|--5------8---12-------0-----0-------0-------------2-------0----|
Db|--5------8---12------------------0----------2----------0-------|
Ab|--3------6---10----3-----------2---------0---------------------|
Eb|-----------------------------------------------------3---------|


                                                                             
Eb|---------------------------------------------------------------| 
Bb|--------1-----4------------------------------------------------| 
Gb|-----------2--3----3------5------------------------------------| 
Db|-----3--------1----3------5------------------------------------| 
Ab|-------------------1------3------------------------------------| 
Eb|--1------------------------------------------------------------| 




Rhythm Fig. 4a (semi-clean)
                                                                             
Eb|---------------------------------------------------------------|          
Bb|-------------------11-------------------------------------11~--|
Gb|----------10-------10--------------------10----------10---10~--|
Db|-10----10----12------12-10h12p10\8--10---10----------10h12-----|
Ab|-10h12------------------------------10h12---12p10\8------------|
Eb|---------------------------------------------------------------|

                                                                         
Eb|---------------------------------------------------------------|
Bb|---------------9p8---------9--8---8-9--------------------------|
Gb|---------------8-----------8--8---8-8---------------10---------|
Db|---------------------------10-8---8-10-----10----10-----12\8---|
Ab|---------6-8p6-----------------------------10h12---------------|
Eb|-----6h8-------------------------------------------------------|


                                                                    
Eb|---------------------------------------------------------------|
Bb|--------------------------------------------------------8------|
Gb|----10--------------------------------------------------8------|
Db|----10------------------------8-------------------------8------|
Ab|--------12p10\8----------8-10---10p8--------------6-8p6--------|
Eb|------------------6-8/10-------------10-----4-6/8--------------|






Eb|---------------------------------------------------------------|
Bb|------------------12-13-12-10-12~------------------------------|
Gb|--12--12--12--12-----------------------------------------------|
Db|--12--12--12--12-----------------------------------------------|
Ab|--10--10--10--10-----------------------------------------------|
Eb|---------------------------------------------------------------|



Rhythm Fig. 4b (semi-clean)
                                                                                           
Eb|---------------------------------------------------------------|
Bb|-----11-11----------------------------------------------8h9p8--|
Gb|-----12-10------------------------------------------8---8---8--|
Db|----------12p10\8-----8----8--8---------------------8----------|
Ab|------------------8---8h10-10-8---------------6-8p6-6----------|
Eb|-1------------------------------10p8\6--4-6/8------------------|


                                                       
Eb|---------------------------------------------------------------|
Bb|--9--8---8-9---------------------------11-11-------------------|
Gb|--8--8---8-8---------------10----------12-10-------------------|
Db|--10-8---8-10--------------10--12------------12p10\8-----------|
Ab|-------------------8-10/12-------------------------------------|
Eb|---------------------------------------------------------------|


                                                                      
Eb|---------------------------------------------------------------|
Bb|---------------------------------------------------------------|
Gb|---------10----------------------------------------------------|
Db|---10----10----------------------------------------------------|
Ab|---10h12----12p10\8----------8-10-10-8\5------------6h8p6/10---|
Eb|----------------------6-8/10-------------6------6h8------------|


                                                                                       
Eb|---------------------------------------------------------------|
Bb|---------------------------------------------------------------|
Gb|-12--12--12--12--12--12--12--12--14--14--14--14--16--16---16\--|
Db|-12--12--12--12--12--12--12--12--14--14--14--14--16--16---16\--|
Ab|-10--10--10--10--10--10--10--10--12--12--12--12--14--14---14\--|
Eb|---------------------------------------------------------------|




Rhythm Fig. 5a (let ring, slight whammy vib)
                                                                          
Eb|---------------------------------------------------------------|
Bb|----------10----------------11--------------9--------9p8-------|
Gb|------10------10--------10------10--------8----8---------------|
Db|--10--------------10h12--------------8h10--------10------8--8--|
Ab|---------------------------------------------------------------|
Eb|---------------------------------------------------------------|
     <- - - - - - - - 2x - - - - - ->

                                                                                     


Eb|---------------------------------------------------------------|
Bb|--9--8---8-9--------------10----------------11-----------------|
Gb|--8--8---8-8----------10------10--------10------10-------------|
Db|--10-8---8-10-----10--------------10h12------------------------|
Ab|---------------------------------------------------------------|
Eb|---------------------------------------------------------------|
                 < - - - - - - - 2x - - - - - - - >

                                                                    
Eb|---------------------------------------------------------------|
Bb|---------9--------9p8----------12------12------12-13-12-10-12~-|
Gb|-------8----8----------------------12------12------------------|
Db|--8h10--------10------8--8-------------------------------------|
Ab|---------------------------------------------------------------|
Eb|---------------------------------------------------------------|




Rhythm Fig. 5b (let ring, slight whammy vib)
                                                                          
Eb|---------------------------------------------------------------|
Bb|----------10----------------11--------------9--------9p8-------|
Gb|------10------10--------10------10--------8----8---------------|
Db|--10--------------10h12--------------8h10--------10------8--8--|
Ab|---------------------------------------------------------------|
Eb|---------------------------------------------------------------|
     <- - - - - - - - 2x - - - - - ->

                                                                                     
Eb|---------------------------------------------------------------|
Bb|--9--8---8-9--------------10----------------11-----------------|
Gb|--8--8---8-8----------10------10--------10------10-------------|
Db|--10-8---8-10-----10--------------10h12------------------------|
Ab|---------------------------------------------------------------|
Eb|---------------------------------------------------------------|
                  <- - - - - - - 2x - - - - - - ->

                                                                    
Eb|---------------------------------------------------------------|
Bb|---------9--------9p8----------12------12------12------12------|
Gb|-------8----8----------------------12------12------12------12--|
Db|--8h10--------10------8--8-------------------------------------|
Ab|---------------------------------------------------------------|
Eb|---------------------------------------------------------------|



                                                                                       
Eb|---------------------------------------------------------------|
Bb|--14------14------16--16----16---------------------------------|
Gb|------14------14--16--16----16---------------------------------|
Db|---------------------------------------------------------------|
Ab|---------------------------------------------------------------|
Eb|---------------------------------------------------------------|






Rhythm Fig. 6a

Eb|---------------------------------------------------------------|
Bb|--------------------------------------------------------3------|
Gb|---------4-------6------4------2-------5---7------------0---4--|
Db|--2------4-------6------4------2-------5---7----2-------0---4--|
Ab|--2------6-------4------2------0-------3---5----2-------x---2--|
Eb|--0---------------------------------------------0-------3------|

 
                                                                                  
Eb|---------------------------------------------------------------|
Bb|---------------------------------------------------3----3------|
Gb|-----------4----------6--------4----------2--------0----2------|
Db|--2--------4----------6--------4----------2--------0----0------|
Ab|--2--------6----------4--------2----------0--------x-----------|
Eb|--0------------------------------------------------3-----------|




Rhythm Fig. 6b
                                                                               
Eb|-------0---------0---------0----------0-----------0------------|
Bb|----0----0----0----0----0-----0----0-----0-----0-----0---------|
Gb|--------------------------------------------------------5---7--|
Db|--------------------------------------------------------5---7--|
Ab|------------6---------4----------2-----------0----------3---5--|
Eb|--0------------------------------------------------------------|


                                                                               
Eb|-------0------------------0---------0----------0---------0-----|
Bb|----0----0-------------0----0----0----0-----0----0----0-----0--|
Gb|---------------------------------------------------------------|
Db|---------------------------------------------------------------|
Ab|------------2---6--------------6----------4---------2----------|
Eb|--0------------------0-----------------------------------------|


                                                                                  
Eb|--------0------------------------------------------------------|
Bb|-----0-----0--3----3-------------------------------------------|
Gb|--------------0----2-------------------------------------------|
Db|--------------0----0-------------------------------------------|
Ab|--0-----------x------------------------------------------------|
Eb|--------------3------------------------------------------------|



Rhythm Fig. 6c (semi-clean)

Eb|---------------------------------------------------------------|
Bb|---------------------------------9h-10p-9~---------------------|
Gb|--------------9-------9\---------9-----------------------------|
Db|--------------9h-11~--9\--------------------x-x----------------|
Ab|--7~----9/11--------------------------------x-x-9p-7-----------|
Eb|------------------------------------------------------9p-7\5~--|



Eb|---------------------------------------------------------------|
Bb|------------------9-9------------------------------------------|
Gb|--5---7-----9-----9-9---------9-9------------------------------|
Db|--5---7-----9h-11-----11p-9-------11p-9-------9~---------------|
Ab|----------------------------------------9h-11------------------|
Eb|---------------------------------------------------------------|


Eb|---------------------------------------------------------------|
Bb|--------------------------12~----------------------------------|
Gb|-----------9----------/13--------13p-11\-9~--------------------|
Db|----9------9h-11p-9--------------------------------------------|
Ab|----9h-11------------------------------------------------------|
Eb|---------------------------------------------------------------|
                   Let ring


Eb|---------------------------------------------------------------|
Bb|---------------------------------------------------------------|
Gb|--9--------9---------------------------------------------------|
Db|--9h-11---11p-9------------------------------------------------|
Ab|----------------11p-9\-7~------9p-7~---------------------------|
Eb|---------------------------------------------------------------|




Rhythm Fig. 7
                                                                                      
Eb|---------------------------------------------------------------|
Bb|--------------3--------------------3-----3---------------------|
Gb|--------2-----2----------2---------0-----2----------------2----|
Db|--2-----2-----0----2-----2---------0-----0----------------2----|
Ab|--2-----0----------2-----0---------x-----x----------------0----|
Eb|--0----------------0---------------3-----2--------1---0--------|
   < - - - - - - - - - - 2x - - - - - - - - - - >

                                                                                           
Eb|---------------------------------------------------------------| 
Bb|---------------------------------------------------------------| 
Gb|--2----2----7--7--7--7------7--7--7--7-------------------------| 
Db|--2----2----7--7--7--7------7--7--7--7-------------------------| 
Ab|--0----0----5--5--5--5------5--5--5--5-------------------------| 
Eb|---------------------------------------------------------------| 




Rhythm Fig. 8 (with fingers)
                                                                                       
Eb|-----0------2---0-2------2-----2-------2--------2--------------| 
Bb|-------2------0--------2-----2-------2---2--------3-------1--0-| 
Gb|---2------2------------------------2----------2----------------| 
Db|---------------------4-----2-----1----------0-----------0------| 
Ab|-0--------------------------------------------------0----------| 
Eb|------------0-----------------------------------------3--------| 


                                                                                      


Eb|-------------------------0-----2----0-2-----2-----2-------2----| 
Bb|-----2---2-----2---2-------2------0-------2-----2-------2----2-| 
Gb|-------2---------2-----2-----2------------------------2--------| 
Db|---2---------2--------------------------4-----2-----1----------| 
Ab|-0-------------------0-----------------------------------------| 
Eb|-----------0-------------------0-------------------------------| 


                                                                                             
Eb|-----2---------------------------------------------------------|
Bb|--------3--------1--0------2-----2-----2------------1-----1--0-|
Gb|---2--------------------------2-----------------------2---0--0-|
Db|-0-------------0---------2-----------2------------3-----3------|
Ab|-----------0-----------0------------------0--------------------|
Eb|-------------3---------------------0--------3---1--------------|



Rhythm Fig. 9a

Eb|---------------------------------------------------------------|
Bb|---------------------------------------------------------------|           
Gb|-----------4-------------------7-------------------------------|
Db|--4--------4----------7--------7---------5----5----5--5--5--5--|
Ab|--4--------2----------7--------5---------5----5----5--5--5--5--|
Eb|--2-------------------5------------------3----3----3--3--3--3--|


                                                                           
Eb|---------------------------------------------------------------|
Bb|---------------------------------------------------------------|
Gb|--------------2-4----------------------------------------------|
Db|--------2-3-5-----------------2--3-----------------------------|
Ab|--2-3-5-----------2--3--5--5-----------------------------------|
Eb|---------------------------------------------------------------|



Rhythm Fig. 9b
                                                                 
Eb|---------------------------------------------------------------|
Bb|---------------------------------------------12--------12------|
Gb|-----------4-------------------7-------------12--------12------|
Db|--4--------4----------7--------7-------------------------------|
Ab|--4--------2----------7--------5-------------------------------|
Eb|--2-------------------5----------------------------------------|

                                                                          

Eb|---------------------------------------------------------------|
Bb|---------------------------------------------------------------|
Gb|---------------------------------------------------------------|
Db|------------2-3-5----------------------------------------------|
Ab|------2-3-5-------------2--2--3--5-----------------------------|
Eb|--3-5-------------3--5-----------------------------------------|






Rhythm Fig. 10
                                                                               
Eb|---------------------------------------------------------------|
Bb|-------1-------------3-------1-------------3-------1-----------|
Gb|----0-----0-------0-------------2-------0-------------2--------|
Db|---------------0----------2----------0----------3--------6---8-|
Ab|-3----------2----------0---------------------------------6---8-|
Eb|----------------------------------3----------1-----------4---6-|

                                                                                   
Eb|---------------------------------------------------------------|
Bb|--------5------------------------------------------------------|
Gb|-----------5--8----12------------------------------------------|
Db|-----5--------8----12------------------------------------------|
Ab|--3-----------6----10------------------------------------------|
Eb|---------------------------------------------------------------|



Rhythm Fig. 11
                                                                               
Eb|---------------------------------------------------------------|
Bb|-------1-------------3-------1-------------3-------1-----4-----|
Gb|----0-----0-------0-------------2-------0-------------2--3---3-|
Db|---------------0----------2----------0----------3--------1---3-|
Ab|-3----------2----------0-------------------------------------1-|
Eb|----------------------------------3----------1-----------------|


                                                                                
Eb|---------------------------------------------------------------|
Bb|-------1-------------3-------1-------------3-------1-----------|
Gb|----0-----0-------0-------------2-------0-------------2--------|
Db|---------------0----------2----------0----------3--------6---8-|
Ab|-3----------2----------0---------------------------------6---8-|
Eb|----------------------------------3----------1-----------4---6-|



Riff 1 
                                                                                          
Eb|---------------------------------------------------------------|
Bb|----8--8-----10~--8-10\-----------------8----------------------|
Gb|-9--------9-------------------5--7-5-7b----7r7p5-7-----5-------|
Db|---------------------------7-----------------------7------7----|
Ab|---------------------------------------------------------------|
Eb|---------------------------------------------------------------|


                             
Eb|---------------------------------------------------------------|
Bb|--------------------------------8-10---8-----------------------|
Gb|-5-7-5---7b--7~-5--7-5-5~----/9------9-------------------------|
Db|-------7-------------------------------------------------------|
Ab|---------------------------------------------------------------|
Eb|---------------------------------------------------------------|





Riff 2a 
                                                                                          
Eb|---------------------------------------------------------------|
Bb|----8--8-----10~--8-10\----------------------------------------|
Gb|-9--------9-------------------5--7--7~------5------------------|
Db|---------------------------7--------------------7--------------|
Ab|---------------------------------------------------------------|
Eb|---------------------------------------------------------------|


                             
Eb|---------------------------------------------------------------|
Bb|---------------------------------------------------------------|
Gb|------5--7--7b---7~-5--7-5-5~----------------------------------|
Db|--7------------------------------------------------------------|
Ab|---------------------------------------------------------------|
Eb|---------------------------------------------------------------|



Riff 2b

Eb|---------------------------------------------------------------|
Bb|------5--6--6b---6~-5--6-5-5~----------------------------------|
Gb|---------------------------------------------------------------|
Db|---------------------------------------------------------------|
Ab|---------------------------------------------------------------|
Eb|---------------------------------------------------------------|


Riff 3

Eb|---------------------------------------------------------------|
Bb|---------------------------------------------------------------|
Gb|--------5-5--------5-------------------------------------------|
Db|----5---5-7p5-5----5-------------------------------------------|
Ab|----5h7-------7----3-------------------------------------------|
Eb|---------------------------------------------------------------|


Riff 4

Eb|---------------------------------------------------------------|
Bb|--15-16~---11~-------------------------------------------------|
Gb|--15-15~---10~-------------------------------------------------|
Db|---------------------------------------------------------------|
Ab|---------------------------------------------------------------|
Eb|---------------------------------------------------------------|



Solo 1
                                                                                             
Eb|----------------------------------------------------------------------|
Bb|------------14b^14r14b^14r-----------14----17b17-17b17-14---17~---15~-|
Gb|-------14-----------------14---16-------------------------------------|
Db|-14-------------------------------------------------------------------|
Ab|----------------------------------------------------------------------|
Eb|----------------------------------------------------------------------|


Eb|-----------------------------------------------------------14-15~--14-|
Bb|---------------14b^14-14b^14----------17-17--------14-15-17-----------|
Gb|------14b-14r----------------14--16----------14-16--------------------|
Db|-14-------------------------------------------------------------------|
Ab|----------------------------------------------------------------------|
Eb|----------------------------------------------------------------------|


Eb|--13---12-------------------------------------------------------------|
Bb|--16b--15b----------------------------------13-----------14-----------|
Gb|-------------14p12----------------14p12---------14p12--------14p12----|
Db|-------------------14-13-12-------------14------------14-----------14-|
Ab|----------------------------15-12-------------------------------------|
Eb|----------------------------------------------------------------------|

                  
Eb|----------------------------------------------------------------------|
Bb|--15------------------------------------------------------------------|
Gb|------14--------------------------------------------------------------|
Db|----------16----------------------------------------------------------|
Ab|--------------17-------------5**--5**--5**--5**-----------------------|
Eb|----------------------------------------------------------------------|


Solo 2
                                                                               
Eb|----------------------------------------------------------------------|
Bb|----------------------------------14b^14r14b^14r----------------------|
Gb|----------------------------14-------------------14-------------------|
Db|--------------------14------------------------------------------------|
Ab|----------------------------------------------------------------------|
Eb|------------------------------------------------------12------10------|

                                                                                         
Eb|-------------------------------17-17----------------------------------|
Bb|--------17b17-17b17-14----17-----------------------14-15--15b-----15--|
Gb|---------------------------------------------14-16--------------------|
Db|---------------------------------------14-16--------------------------|
Ab|----------------------------------------------------------------------|
Eb|----------------------------------------------------------------------|



GOD GAVE ROCK 'N' ROLL TO YOU II
Ballard, Stanley, Simmons, Ezrin

[Rhy. Fig 1a and 1b]
[Rhy. Fig 2a and 2b]
[Rhy. Fig 3 with Riff 1]
[Riff 2a and 2b]
God gave rock and roll to you
Gave rock and roll to you
Gave rock and roll to everyone
[Riff 3]

[Rhy. Fig 4a and 5a]
Do you know what you want?
You donĄt know for sure
You donĄt feel right, you canĄt find a cure
And youĄre getting less than what youĄre looking for

You donĄt have money
Or a fancy car
And youĄre tired of wishing on a fallen star
You gotta put your faith in a loud guitar

[Rhy. Fig 3]
God gave rock and roll to you
Gave rock and roll to you
Gave rock and roll to everyone

God gave rock and roll to you
Gave rock and roll to you
Put it in the soul of everyone
[Riff 4]

[Rhy. Fig 4b and 5b]
"Now listen"
If you wanna be a singer
Or play guitar
Man, you gotta sweat it or you wonĄt get far
Cause itĄs never too late to work nine-to-five

You can take a stand
Or you can compromise
You can work real hard or just fantasize
But you donĄt start living til you realize

[Rhy. Fig 6a, 6b and 6c]
God gave rock and roll to you
Gave rock and roll to you
Gave rock and roll to everyone

God gave rock and roll to you
Gave rock and roll to you
Put it in the soul of everyone

[Solo 1 and 2 over Rhy. Fig 7]

[Rhy. Fig 8]
God gave rock and roll to you
(To everyone he gave the song to be sung)
Gave rock and roll to you
Gave rock and roll to everyone

God gave rock and roll to you
(To everyone he gave the song to be sung)
Gave rock and roll to you
Save rock and roll for everyone
Saved rock and roll
[Rhy. Fig 9a and 9b]

[Rhy. Fig 10]
God gave rock and roll to you
Gave rock and roll to you
Gave rock and roll to everyone

[Rhy. Fig 11]
God gave rock and roll to you
Gave rock and roll to you
Put it in the soul of everyone
[Repeat Rhy. Fig 11 with spoken words and fade]

6. Domino - Simmons

Rhythm fig. 1 (with fingers)
                                                                                   
E|---------------------------------------------------------------------|
B|---------------------------------------------------------------------|
G|----9--9-----7-----5-----------5--------9--9--9-----9-----7--7--5--9-|
D|-x--7--7--x--7--x--7--x--x--x--7--7--5--7--7--7--x--7--x--7--7-----7-|
A|---------------------------------------------------------------------|
E|---------------------------------------------------------------------|



                                                                                 
E|---------------------------------------------------------------------|
B|---------------------------------------------------------------------|
G|----9--9--9--9--9--9-----9-----9-----7--7-----5-----------5--------9-|
D|-x--7--7--7--7--7--7--x--7--x--7--x--7-----x--7--x--x--x--7--7--5--7-|
A|---------------------------------------------------------------------|
E|---------------------------------------------------------------------|


                                                                                    
E|---------------------------------------------------------------------|
B|---------------------------------------------------------------------|
G|-------9--9-----7--7--5----------------------------------------------|
D|-x--x--7--7--x--7-----5--7\------------------------------------------|
A|-------------------------7\------------------------------------------|
E|---------------------------------------------------------------------|


Rythm fig. 2a
                                                                         
E|---------------------------------------------------------------------|
B|------------3--------------------------------------------3-----------|
G|------------2--------------------------------------------2-----------|
D|------------0-------------2------------------------------0-------2---|
A|----3----0-------0--3b----0----3p-0-----0-----0--3----0-------3--0---|
E|-------------------------------------3-------------------------------|


                                                                                               
E|---------------------------------------------------------------------| 
B|---------------------------------------------------------------------| 
G|---------------------------------------------------------------------| 
D|-----------------2---------------------------------------------------| 
A|-----------------0---------------------------------------------------| 
E|--------2--3--4------------------------------------------------------| 



Rhythm fig. 2b

E|---------------------------------------------------------------------|
B|------------3--------------------------------------------3-----------|
G|------------2--------------------------------------------2-----------|
D|------------0-------------2------------------------------0-------2---|
A|----3----0-------0--3b----0----3p-0-----0-----0--3----0-------3--0---|
E|-------------------------------------3-------------------------------|



Rhythm fig. 3a
                                                                                 
E|---------------------------------------------------------------------|
B|---------------------------------------------------------------------|
G|---------------------------------------------------------------------|
D|----------------------------------------2----------------------------|
A|-0--0--0--0--0--0--0--0--0--0--0-3p-0---0--0--0--0--0--0--0--0--0--0-|
E|--------------------------------------3------------------------------|


 

                                                                            
E|---------------------------------------------------------------------|
B|---------------------------------------------------------------------|
G|-------------------------------------2-------------------------------|
D|-------------------------------------0------------2------------------|
A|--0--0--0-----------0--0--0--3----0-------0--3----0----3--0-----0--0-|
E|-----------2--3--4-------------------------------------------3-------|

                                                                                       
E|---------------------------------------------------------------------|
B|---------------------------------------------------------------------|
G|-------------2-------------------------------------------------------|
D|-------------0-------2-----------------------------------------------|
A|--0--3----0-------3--0------2------------0---------------------------|
E|----------------------------0------0h-3-----3------------------------|


Rhythm fig. 3b
                                                                                 
E|---------------------------------------------------------------------|
B|---------------------------------------------------------------------|
G|---------------------------------------------------------------------|
D|----------------------------------------2----------------------------|
A|-0--0--0--0--0--0--0--0--0--0--0-3p-0---0--0--0--0--0--0--0--0--0--0-|
E|--------------------------------------3------------------------------|


                                                                             
E|---------------------------------------------------------------------|
B|---------------------------------------------------------------------|
G|-------------------------------------2-------------------------------|
D|-------------------------------------0------------2------------------|
A|--0--0--0-----------------0--3----0-------0--3----0----3p-0-----0--0-|
E|-----------2--3--4--5\---------------------------------------3-------|


                                                                                       
E|---------------------------------------------------------------------|
B|---------------------------------------------------------------------|
G|-------------2-------------------------------------------------------|
D|-------------0-------2-----------------------------------------------|
A|--0--3----0-------3--0--0--0-----------------------------------------|
E|------------------------------2--3--4--5\----------------------------|


Rhythm fig. 4
                                                                          
E|---------------------------------------------------------------------|
B|------------3--------------------------------------------3-----------|
G|------------2--------------------------------------------2-----------|
D|------------0------------2-------------2-----------------0-------2---|
A|----3----0-------0--3----0----3p-0-----0--0---0--3----0-------3--0---|
E|------------------------------------3--------------------------------|


                                                                           
E|---------------------------------------------------------------------|
B|---------------------------------------------------------------------|
G|-----------------------------------2-------------2-------------------|
D|-----------------------------------0-------------2-------------2-----|
A|--0--0--0------------------3----0-------0--3-----0----3--0-----0--0--|
E|-----------2--3--4--5\--------------------------------------3--------|


                                                                                         
E|---------------------------------------------------------------------|
B|---------------------------------------------------------------------|
G|-------------2-------------------------------------------------------|
D|-------------0-------------------------------------------------------|
A|--0--3----0-------3--0--0--0--0--------------------------------------|
E|---------------------------------2--3--4--5\-------------------------|



Rhythm fig. 5a
                                                                                            
E|---------------------------------------------------------------------|
B|--3-----3-----2----------------------3-----3-----2-------------------|
G|--0-----2-----2----------------------0-----2-----2-------------------|
D|--0-----0-----2----------------------0-----0-----2-------------------|
A|--x-----------0-----0--3p-0-----0----x-----------0-----0--3p-0-----0-|
E|--3--------------------------3-------3--------------------------3----|


                                                                                      
E|----------------------------------------------3----------------------|
B|----3------3------2---------------------------3------3---------------|
G|----0------2------2---------------------------0------2---------------|
D|----0------0------2---------------------------0------0---------------|
A|----x-------------0-------0--3p-0-----0-------x----------------------|
E|----3------------------------------3----------3----------------------|



Rhythm fig. 5b
                                                                                          
E|---------------------------------------------------------------------|
B|--3-----3-----2-----------------------3-----3-----2------------------|
G|--0-----2-----2----------------2------0-----2-----2------------------|
D|--0-----0-----2----------------2------0-----0-----2----------------2-|
A|--x-----------0-----0-3p-0-----0------x-----------0-----0-3p-0-----0-|
E|--3-------------------------3---------3-------------------------3----|


                                                                                           
E|---------------------------------------------------------------------|
B|--3-----3-----2----------------------3-----3----------3-----3--------|
G|--0-----2-----2----------------------0-----2----------0-----2--------|
D|--0-----0-----2---------------2------0-----0----------0-----0--------|
A|--x-----------0----0-3p-0-----0------x----------15\---x----------15\-|
E|--3------------------------3---------3----------15\---3----------15\-|


                                                                              
E|---------------------------------------------------------------------|
B|----3------3---------------------------------------------------------|
G|----0------2---------------------------------------------------------|
D|----0------0---------------------------------------------------------|
A|----x----------(15\)-------------------------------------------------|
E|----3----------(15\)-------------------------------------------------|



Rhythm fig. 5c
                                                                                            
E|---------------------------------------------------------------------|
B|--3-----3-----2----------------------3-----3-----2-------------------|
G|--0-----2-----2----------------------0-----2-----2-------------------|
D|--0-----0-----2----------------------0-----0-----2-------------------|
A|--x-----------0-----0--3p-0-----0----x-----------0-----0--3p-0-----0-|
E|--3--------------------------3-------3--------------------------3----|


                                                                                      
E|----------------------------------------------3----------------------|
B|----3------3------2---------------------------3------3---2-----------|
G|----0------2------2---------------------------0------2---2-----------|
D|----0------0------2---------------------------0------0---2-----------|
A|----x-------------0-------0--3p-0-----0-------x----------0-----------|
E|----3------------------------------3----------3----------------------|



Rhythm fig. 6
                                                                              
E|---------------------------------------------------------------------|
B|---------------------3------------------------3--------3--------3----|
G|-1-------------------1------------------------1--------1--------1----|
D|-2-------2-----2-----2--------2--------2------2--------2--------2----|
A|-2-------2-----2--------------2--------2-----------------------------|
E|-0----0--0--0--0--0--------0--0--0--0--0--0------0--0-----0--0-----0-|


                                                                                    
E|---------------------------------------------------------------------|
B|-----3--------3--3--3--3---------------------------------------------|
G|-----1--------1--1--1--1---------------------------------------------|
D|-----2--------2--2--2--2---------------------------------------------|
A|---------------------------------------------------------------------|
E|--0-----0--0---------------------------------------------------------|



Rhythm fig. 7
                                                                           
E|---------------------------------------------------------------------|
B|---------------------------------------------------------------------|
G|-----2-------4------2----------------------------2-------4----2------|
D|-----2-------4------2----4-----------------------2-------4----2--4---|
A|-------------------------4---------------------------------------4---|
E|--2-------2-----------------2--2--2--2--2--2--2-------2--------------|
  <- - - - - - - - - - - - - - - - - - - - - - - - - - - - - - - - - - 

                                                                            
E|---------------------------------------------------------------------|
B|---------------------------------------------------------------------|
G|-----------------------------2-------4------2----------2-------------|
D|-----------------------------2-------4------2-----4----2--4--2--4----|
A|--------------------------------------------------4-------4--2--4----|
E|--2--2--2--2--2--2--2--2--2-------2--------------------------------2-|
   - - - - - - - - - - - - - - - - 2x - - - - - - - - - - - - - - - - -


                                                                             
E|---------------------------------------------------------------------|
B|---------------------------------------------------------------------|
G|-----2------4----2---------------------------------2-------4---------|
D|-----2------4----2--4------------------------------2-------4----0--2-|
A|--------------------4------------------------------------------------|
E|--2------2--------------2--2--2--2--2--2--2--2--2-------2------------|
  - - - - - - - - - - - - - - - - - - - - - - ->

                         
E|---------------------------------------------------------------------|
B|----------------3----------------------------------------------------|
G|----------------0----------------------------------------------------|
D|----0-----------0----------------------------------------------------|
A|-------2--1--0--x----------------------------------------------------|
E|----------------3----------------------------------------------------|



Rhythm fig. 8

E|---------------------------------------------------------------------|
B|---------------------------------------------------------------------|
G|--2-----------------------2--------2---------------------------------|
D|--2-----------------------0--------2---------------------------------|
A|--0--------------------------0--3--0---------------------------------|
E|---------------------------------------------------------------------|
                            Fade out quickly


Riff 1
                                                                            
E|------------------------------------------------------------------|
B|------------------------------------------------------------------|
G|-----------------------2-----0**----------------------------------|
D|----------------1--2------2-----2--1--0--2------------------------|
A|--------------------------------------------3---------------------|
E|------------------------------------------------------------------|



Riff 2
                                                                              
E|------------------------------------------------------------------|
B|-----8-----8-----8-----8-----8------------------------------------|
G|--7b----7b----7b----7b----7b----7--5------------------------------|
D|---------------------------------------7**------------------------|
A|------------------------------------------------------------------|
E|------------------------------------------------------------------|
        hold bend - - - - >


Riff 3
                                                                                       
E|------------------------------------------------------------------|
B|------------------------------------------------------------------|
G|------------------------------------------------------------------|
D|----5--4b^------------------7**-----------------------------------|
A|------------6**--5**--3**-----------------------------------------|
E|------------------------------------------------------------------|


Riff 4
                                                                                        
E|------------------------------------------------------------------|
B|------------------------------------------------------------------|
G|-----0-----0-----0-----0------------------------------------------|
D|--4-----4-----4-----4-----4b^-------------------------------------|
A|------------------------------------------------------------------|
E|------------------------------------------------------------------|



Solo
                                                                                   
E|---------------------------------------------------------------------|
B|---------------------------------------------------------------------|
G|------10/17----------------------------------------------------------|
D|--------------17\--------2--2--2--2--2--2--2---2--2--2--2--2--2-2(\)-|
A|---------------------------------------------------------------------|
E|---------------------------------------------------------------------|
                     Dip whammy bar whole step - - - - - ->Rock bottom

                                                                                         
E|---------------------------------------------------------------------|
B|---------------------------------------------------------------------|
G|---4b----4b**4b-4b**4b-4---2-----------------------------------------|
D|---------------------------------------2--------2----2---------------|
A|--------------------------------------------------4--2----4(\/)------|
E|---------------------------------------------------------------------|
      hold bend - >

                                                                                      
E|---------------------------------------------------------------------|
B|----------------------------14-17-14-----17-17p14----14-17--14----14-|
G|-------------------------16b---------16b----------16-----------16b---|
D|-------0(\/)---------------------------------------------------------|
A|---------------------------------------------------------------------|
E|-(/)2----------------------------------------------------------------|
        4 whole-steps

                                                                  
E|---------------------------------------------------------------------|
B|--17-17p14----14-17-17p14----17p14----17p14----17p14----17p14--------|
G|-----------16b------------16-------16b------16b------16b------16b----|
D|---------------------------------------------------------------------|
A|---------------------------------------------------------------------|
E|---------------------------------------------------------------------|


                                                                          
E|---------------------------------------------------------------------|
B|--17p14h17p14h17p14h17p14h17p14h17p14------------------------17b~----|
G|--------------------------------------(/)14--11/--16--14~------------|
D|---------------------------------------------------------16----------|
A|---------------------------------------------------------------------|
E|---------------------------------------------------------------------|
    Dive bar 2 whole-steps - - - - - >

                                                                               



E|---------------------------------------------------------------------|
B|---------------------------------------------------------------------|
G|-11---------------------11-9-9----------11-9-------------------------|
D|-----11--14--11--10--11---------11p-10-------11-10-9-10-9-7-7-x--2-4-|
A|---------------------------------------------------------------------|
E|---------------------------------------------------------------------|


                                                                                       
E|---------------------------------------------------------------------|
B|------------------3--5------3----------------------------------------|
G|--2**------4**-----------------4--3--2-0(\)--------------------------|
D|-------2-4-----------------------------------------------------------|
A|---------------------------------------------------------------------|
E|---------------------------------------------------------------------|


Outro solo
                                                                                   
E|------------------------------------------------------------------|
B|------------------------------------------------5**---------------|
G|----7b--7r-5~-----------------------------------------------------|
D|---------------------------------------------------7--------------|
A|-----------------------------------------5h6h7--------------------|
E|------------------------------------------------------------------|


                                                                                     
E|------------------------------------------------------------------|
B|--4/5-8p5-7p5-8p7p5-------------------5-------5-------5-----5-----|
G|--------------------5~-----------5b------5b------5b------5-----5\-|
D|------------------------------------------------------------------|
A|------------------------------------------------------------------|
E|------------------------------------------------------------------|
                          Let ring - - - - - - - - - - - >

                                                                           
E|--------------------17--17--------17-----------------17-----------|
B|-------------20b------------20b-------20-----------------17\------|
G|-------------------------------------19b---------19b--------------|
D|------------------------------------------------------------------|
A|------------------------------------------------------------------|
E|------------------------------------------------------------------|


                                                                                        
E|---------------------------------------5--------------------------|
B|-----17-----------------------------5----8-5---5------------------|
G|-19b-----19b^19r17-19b^-17\----7h-8-----------8---7-5---7p-5------|
D|-----------------------------------------------------7-------7-5~-|
A|------------------------------------------------------------------|
E|------------------------------------------------------------------|


                                                                                          
E|------------------------------------------------------------------|
B|------------------------------------------------------------------|
G|-------------------------------------7*(\)---------5---------7--5-|
D|------------------------------------------------7--5-7p5--7--7--5-|
A|------------------------------------------------7----7p5--7-------|
E|-(/)3-------15\---(/)3-------15\----------------------------------|

                                                                                
E|------------------------------------------------------------------|
B|------------------------------------------------------------------|
G|-----------------------------2------------------------------------|
D|-----------------------------2--------------------------------x-x-|
A|--------------------5--0--3--0--------------------------------x-x-|
E|------------------------------------------------------------------|
                         Lower one octave with whammy bar




Domino
Simmons


[Rhy. Fig 1]
Now lemme tell you my story
I got a man-sized predicament
And it叫 a big one
Goes like this

[Rhy. Fig 2a with Riff 1]
[Rhy. Fig 2a with Riff 2]

[Rhy. Fig 3a]
Never had confession
Never had a home
Never had no worry
Until I met Domino

[Rhy. Fig 4]
Ain另 the virgin Mary
Love her I confess
Got my hesitations
Cause she kisses like the kiss of death

[Rhy. Fig 5a]
Loves lots of money
Backs against the wall
Calls me "Sugar Daddy", she knows she叫
Got me by the balls
[Rhy. Fig 6]
They call her Domino

[Rhy. Fig 2a with Riff 3]
[Rhy. Fig 2b]

[Rhy. Fig 4 & 3b]
Got a reputation
Haven另 got a hope
It叫 a sticky situation
If she ain另 old enough to vote

[Rhy. Fig 5b]
Loves to play with fire
Loves to hurt so good
Loves to keep me burnin
Cause she叫 a bad habit, bad habit

              [Rhy. Fig 6]
Bad habit that叫 good, good, good
They call her Domino
[Rhy. Fig 2a with Riff 4]
Domino, Domino

[Rhy. Fig 2a]

[Solo over Rhy. Fig 7]

[Rhy. Fig 1]
Every damn time I walk through the door
It叫 the same damn thing...
That bitch bends over
And I forget my name...Ow!

[Rhy. Fig 5c with Outro solo]
Loves lots of money
Back叫 against the wall
Calls me "Sugar Daddy", she knows she叫
Got me by the balls
[Rhy. Fig 5b]
Loves to play with fire
Love her I confess
Got no hesitation, cause she叫 a
Bad habit, bad habit
She叫 a bad habit

[Rhy. Fig 8]


7.Heart of Chrome - Stanley, Vincent, Ezrin

tune down 1/2 step

Rhythm Fig. 1a (palm mute throughout)
                                                                             
Eb|----------------------------------------------------------------|
Bb|----------------------------------------------------------------|
Gb|----------------------------------------------------------------|
Db|----------------------------------------------------------------|
Ab|--0-0-2-2-3-3-0-0-----------0-0-2-2-3-3-0-0---------------------|
Eb|----------------------------------------------------------------|







Rhythm Fig. 1b
                                                                                        
Eb|----------------------------------------------------------------|
Bb|----------------------------------------------------------------|
Gb|-2-----5---5---4--------7---7---5--------9---9---7--------5---4-|
Db|-2-----5---5---4--------7---7---5--------9---9---7--------5---4-|
Ab|----------------------------------------------------------------|
Eb|----------------------------------------------------------------|
 
                                                                                     
Eb|----------------------------------------------------------------|
Bb|----------------------------------------------------------------|
Gb|--2--------5---5---4------------7---7---5------------9---9---7--|
Db|--2--------5---5---4------------7---7---5------------9---9---7--|
Ab|----------------------------------------------------------------|
Eb|----------------------------------------------------------------|



Rhythm Fig. 2 (P.M. on 6th)
                                                                                 
Eb|----------------------------------------------------------------|
Bb|----------------------------------------------------10--10------|
Gb|-5----7----9-----11-----12--12----11/12--12--11--9--9---9-------|
Db|-5----7----9-----11-----12--12----11/12--12--11--9--------------|
Ab|----------------------------------------------------------------|
Eb|--------------0------0---------------------------------------0--|
    < - - - - - - - - - - - - - - - - - - - - - - 2x - - - - - - -

                                                                                
Eb|----------------------------------------------------------------|
Bb|----------------------------------------------------------------|
Gb|--9-----11-----12-----9\7------7-----------9-----11-----12--12--|
Db|--9-----11-----12-----9\7------7--7--------9-----11-----12--12--|
Ab|----------------------------------7-----------------------------|
Eb|-----0------0------0--------------------------0------0----------|
    - - - - - - - - - - - - - - - - - >

                                                                                 
Eb|----------------------------------------------------------------|
Bb|-------------------10--10---------------------------------------|
Gb|-11/12--12--11--9--9---9-------9-----11-----12-----9\-7----7--5-|
Db|-11/12--12--11--9--------------9-----11-----12-----9\-7----7--5-|
Ab|----------------------------------------------------------------|
Eb|----------------------------0-----0------0------0---------------|




Rhythm Fig. 3
                                                                                  
Eb|----------------------------------------------------------------|
Bb|----------------------------------------------------------------|
Gb|--4-4-4-4---4-4-4-4-------4-4-4-4---4-4-4-4----5----------------| 
Db|--4-4-4-4---4-4-4-4-------4-4-4-4---4-4-4-4----5----------------| 
Ab|--2-2-2-2---2-2-2-2-------2-2-2-2---2-2-2-2----3----------------| 
Eb|----------------------------------------------------------------|


                                                                   

Eb|----------------------------------------------------------------|
Bb|----------------------------------------------------------------|
Gb|--4-4-4-4---4-4-4-4-----------4---------4-----------------------|
Db|--4-4-4-4---4-4-4-4---------------------------------------------|
Ab|--2-2-2-2---2-2-2-2-----2p0-2-----2p0-2-----12\-----------------|
Eb|--------------------------------------------12\-----------------|



Rhythm Fig. 4a

Eb|----------------------------------------------------------------|
Bb|----------------------------------------------------------------|
Gb|----------------------------------------------------------------|
Db|----------------------------------------------------------------|
Ab|----7p5--------------------------7p5----------------------------| 
Eb|--0-----7-6-5-3---3---5-3--5--3------7-6-5-3---3--5-3~----------| 


                                                                                        
Eb|----------------------------------------------------------------|
Bb|----------------------------------------------------------------|
Gb|----------------------------------------------------------------|
Db|----------------------------------------------------------------|
Ab|----7p5-------------------------7p5-----------------------------| 
Eb|--0-----7-6-5-3---3---5-3--5-3------7-6-5-3---3---5-3-5~--------| 


Eb|----------------------------------------------------------------|
Bb|----------------------------------------------------------------|
Gb|----------------------------------------------------------------|
Db|----------------------------------------------------------------|
Ab|----7p5--------------------------7p5----------------------------|
Eb|--0-----7-6-5-3---3---5-3--5--3------7-6-5-3---3--5-3~----------|

                                                            
Eb|----------------------------------------------------------------|
Bb|----------------------------------------------------------------|
Gb|-----------------------------------------------------2----------|
Db|--------------------------------------------0-1-2----2----------|
Ab|----7p5-------------------------------0-2-3----------0----------|
Eb|--0-----7-6-5-3---3-5p-3--5--3p-0-2-3---------------------------|



Rhythm Fig. 4b

Eb|----------------------------------------------------------------|
Bb|----------------------------------------------------------------|
Gb|-----------9p7--------------------------9p7---------------------|
Db|---------------9-8-7-5---5---7-5--7--5------9-8-7-5---5--7-5~---|
Ab|----------------------------------------------------------------|
Eb|-5h6-5~---------------------------------------------------------|

                                                            
Eb|----------------------------------------------------------------|
Bb|----------------------------------------------------------------|
Gb|----9p7----------------------------------------7-8-9------------|
Db|--------9-8-7-5---5-7p-5--7------------7-9-10-------------------|
Ab|-----------------------------10p7-9-10--------------------------|
Eb|----------------------------------------------------------------|

Rhythm Fig. 5 (P.M. on single notes)
                                                                    
Eb|----------------------------------------------------------------|
Bb|----------------------------------------------------------------|
Gb|------------------------------8---------------------10---9---7--|
Db|------------------------------8---------------------10---9---7--|
Ab|--5-5-5-5-5-5-5-5-5-5-5-5-5-5-6-----5-5-5-5-5-5-5-5-8----7---5--|
Eb|----------------------------------------------------------------|
    < - - - - - - - 3x - - - - - - >



Eb|---------------------------------------------------------------|
Bb|---------------------------------------------------------------|
Gb|------------------------------8--------------------10----12----|
Db|------------------------------8--------------------10----12----|
Ab|--5-5-5-5-5-5-5-5-5-5-5-5-5-5-6----5-5-5-5-5-5-5-5-8-----10----|
Eb|---------------------------------------------------------------|
     < - - - - - 3x - - - - - - - >




Rhythm Fig. 6 (let ring)
                                                                               
Eb|---------------------------------------------------------------|
Bb|-------2--------4----------5--------4------------2----------4--|
Gb|----0--------2----------3--------2-----------0----------2------|
Db|-2--------4----------5--------4----------2----------4----------|
Ab|---------------------------------------------------------------|
Eb|---------------------------------------------------------------|
    < - - - - - - - - 2x - - - - - - - >

                                                                      
Eb|---------------------------------------------------------------|
Bb|----------5----------7---9----------10------------12-----------|
Gb|------3----------5-----------7-----------8-------------10------|
Db|--5----------7-------------------9------------10------------12-|
Ab|---------------------------------------------------------------|
Eb|---------------------------------------------------------------|





Rhythm Fig. 7
                                                                                      
Eb|---------------------------------------------------------------|
Bb|---------------------------------------------------------------|
Gb|---9-9-9-9---9-9-9-9-------------------------------------------|
Db|---9-9-9-9---9-9-9-9-------------------------------------------|
Ab|---7-7-7-7---7-7-7-7-------------------------------------------|
Eb|---------------------------------------------------------------|
     <- - - - 4x - - - ->






Rhythm Fig. 8 
                                                                         
Eb|---------------------------------------------------------------|
Bb|---------------------------------------------------------------|
Gb|------9-----12--------------------------------------9-----12---|
Db|------9-----12-----10/12----------------10/12-------9-----12---|
Ab|------7-----10-----10/12----------------10/12-------7-----10---|
Eb|--------------------8/10-----------------8/10------------------|


                                           
Eb|---------------------------------------------------------------|
Bb|---------------------------------------------------------------|
Gb|---------------------------------------------------------------|
Db|--10/12-----------------0-1-0---0------------------------------|
Ab|--10/12-----------------------3---3-0-0------------------------|
Eb|---8/10--------------------------------------------------------|



Riff 1

Eb|--12-12-12-12-12\----------------------------------------------|
Bb|--12-12-12-12-12\-----10b--10**--------------------------------|
Gb|----------------------------------7h9---7~---------------------|
Db|---------------------------------------------------------------|
Ab|---------------------------------------------------------------|
Eb|---------------------------------------------------------------|



Eb|------12-----17-15--12-----------------------------------------|
Bb|--/12----12------------12-12\10-----10\8-----------------------|
Gb|-----------------------------------------9**-------------------|
Db|---------------------------------------------------------------|
Ab|---------------------------------------------------------------|
Eb|---------------------------------------------------------------|
     With slide   Let ring


Eb|---------------------------------------------------------------|
Bb|-----------------------------------------------13b-13~---------|
Gb|---------------------------------------14b-14~-----------------|
Db|--------------------------12-12-14-14--------------------------|
Ab|--10-10-12-12-13-13-14-14--------------------------------------|
Eb|---------------------------------------------------------------|
     P.M. - - - - - - - - - - - - - - ->


Riff 2

Eb|--12-11~----11h-12p-11--9-11~------------------------------17~-|
Bb|---------------------------------------------------------------|
Gb|--12-11~----11h-12p-11--9-11~---------------------14h15h17-----|
Db|-----------------------------------------14h15h17--------------|
Ab|---------------------------------------------------------------|
Eb|---------------------------------------------------------------|
     Two guitars arranged for one



Riff 3

Eb|------------------------12p11----11-12--13--14--15--16--17-----|
Bb|------------------12h13-------13----15b-16b-17b-18b-19b-20b~---|
Gb|----------/16\-------------------------------------------------|
Db|---------------------------------------------------------------|
Ab|---------------------------------------------------------------|
Eb|--0------------------------------------------------------------|


Riff 4

Eb|---------------------------------------------------------------|
Bb|--13--12--10-------------------------------13--12--10----------|
Gb|--15b-14b-12b~-----14p12----12-14p12-------15b-14b-12b~--------|
Db|-------------------------14----------14-12---------------------|
Ab|---------------------------------------------------------------|
Eb|---------------------------------------------------------------|
    < - -2x- ->


Riff 5

Eb|-------------------------------------------15b~----------------|
Bb|--13b~---15p13-------------------------------------------------|
Gb|---------------14-12h14p12-10-12p-10---------------------------|
Db|-------------------------------------12~-----------------------|
Ab|---------------------------------------------------------------|
Eb|---------------------------------------------------------------|


Solo

Eb|---------------------------------------------------------------|
Bb|---------------------------------------------------------------|
Gb|--7**-------------------------------------------10h12----------|
Db|------7**---------------------10h12-------10h12-------10~------|
Ab|-----------3-5----------10h12-------10h12----------------------|
Eb|---------------------------------------------------------------|



Eb|--------------------------10-----10-----------------22-----22--|
Bb|--------------------10h13----13b----13~----20b---------20b-----|
Gb|--------------10h12--------------------------------------------|
Db|--------10h12--------------------------------------------------|
Ab|--10h12--------------------------------------------------------|
Eb|---------------------------------------------------------------|
                                  Gradual  Hold bend ->


Eb|-----22-----22-----22-----22-----22b~--------------------------|
Bb|-20b----20b----20b----20b----20b-------------------------------|
Gb|---------------------------------------------------------------|
Db|---------------------------------------------------------------|
Ab|---------------------------------------------------------------|
Eb|---------------------------------------------------------------|
   Hold bend - - - - - - - - - - >



HEART OF CHROME
Stanley, Vincent, Ezrin

[Rhy. Fig 1a] (2x)
[Rhy. Fig 1a and 1b]

[Rhy. Fig 2]
You better listen up, since you screwed me youĄve been on my mind
Yeah, til the day we met...I was cruisin, I was doing fine
But now my worldĄs gone crazy and I think about you all the time

[Rhy. Fig 3]
IĄm gonna tell it to you baby
It ainĄt like it was
ThereĄll be no ifs, ands or maybes
Only justice because...

[Rhy. Fig 1a and 1b]
Hey, baby
(I...got an angry soul - I got a broken home)
IĄm gonna stick it in your heart of chrome
(I got no self-control - you gotta a heart of chrome)
Yeah, sugar
(And now youĄre gonna see - that since you messed with me)
IĄm gonna stick it in your heart of chrome
(YouĄll pay eternally - for your heart of chrome)
Your heart of chrome

[Rhy. Fig 2 with Riff 1]
Yeah, you really made a fool out of me
Everybody knew you used me, but I was just too blind to see
You taped our sexy conversations and you sold them to the BBC

[Rhy. Fig 3 with Riff 2]
You told me people canĄt be trusted
You gotta watch the things they do
But if you still believe in justice
IĄm gonna give it to you...give it to you, ooh

[Rhy. Fig 1a and 1b]
Hey, baby
(I...got an angry soul - I got a broken home)
IĄm gonna stick it in your heart of chrome
(I got no self-control - you gotta a heart of chrome)
Yeah, sugar
(And now youĄre gonna see - that since you messed with me)
IĄm gonna stick it in your heart of chrome
(YouĄll pay eternally - for your heart of chrome)
Your heart of chrome

[Rhy. Fig 4a and 4b]

[Solo over Rhy. Fig 5]

[Rhy. Fig 6]
You told me lies about all that you feel
I realize now that nothing was real
You took everything you could beg, borrow, steal

[Rhy. Fig 7 with Riff 3]

[Rhy. Fig 1a and 1b with Riff 4]
Hey, baby
(I...got an angry soul - I got a broken home)
IĄm gonna stick it in your heart of chrome
(I got no self-control - you gotta a heart of chrome)
Yeah, sugar
(And now youĄre gonna see - that since you messed with me)
IĄm gonna stick it in your heart of chrome
(YouĄll pay eternally - for your heart of chrome)
Your heart of chrome

[Rhy. Fig 8 with Riff 5]

8. Thou Shalt Not-Simmons, Jesse Damon

tune down 1/2 step

Rhythm fig. 1a
                                                                                     
Eb|-------------------------------------------------------------|
Bb|-------------------------------------------------------------|
Gb|--------2----2-----------------------------------------------|
Db|--------2----2-----------------------------------------------|
Ab|--2-----0----0-----------------------------------------------|
Eb|--0--3----------3--------------------------------------------|





Rhythm fig. 1b
                                                                                    
Eb|-------------------------------------------------------------|
Bb|-------------------------------------------------------------|
Gb|--------2----------2------2----------------------------------|
Db|--------2----------2------2----------------------------------|
Ab|--2-----0----2-----0------0----------------------------------|
Eb|--0--3-------0--3------------3-------------------------------|


Rhythm fig. 2
                                                                             
Eb|-------------------------------------------------------------|
Bb|-------------------------------------------------------------|
Gb|-------------------------------------------------------------|
Db|--2----------------------------------------------------------|
Ab|--2----------------------------------------------------------|
Eb|--0----------------------------------------------------------|


Rhythm fig. 3
                                                                                       
Eb|--0---0--0--0---0--0---0--0----------------------------------|
Bb|--3/5-5--5--3/5-5--3/5-5--5----------------------------------|
Gb|-------------------------------------------------------------|
Db|-------------------------------------------------------------|
Ab|-------------------------------------------------------------|
Eb|-------------------------------------------------------------|


Rhythm fig. 4
                                                                                 
Eb|-------------------------------------------------------------|
Bb|-------------------------------------------------------------|
Gb|--------------2----------------------------------------------|
Db|--2--2--5-----2----------------------------------------------|
Ab|--2--2--5----------------------------------------------------|
Eb|--0--0--3--0-------------------------------------------------|
        P.M. ->


Rhythm fig. 5a
                                                                                      
Eb|-------------------------------------------------------------|
Bb|--------3----3--3--3--------3--3------3--3-------------------|
Gb|--------0----0--0--2--------0--0------0--0-------------------|
Db|--------0----0--0--0--------0--0------0--0-------------------|
Ab|--------x----x--x-----------x--x------x--x-------------------|
Eb|--0--2--3----3--3-----------3--3------3--3-------------------|



Rhythm fig. 5b
                                                                                      
Eb|-------------------------------------------------------------|
Bb|--------3-----3--3---------3---------------------------------|
Gb|--------0-----0--2---------2---------------------------------|
Db|--------0-----0--0----2----0---------------------------------|
Ab|--------x-----x--x----2----0---------------------------------|
Eb|--0--2--3-----3--2----0--------------------------------------|

Rhythm fig. 5c
                                              
Eb|-------------------------------------------------------------|
Bb|--------3----3--3---------3----------------------------------|
Gb|--------0----0--2---------2----2-----------------------------|
Db|--------0----0--0--2------0----2-----------------------------|
Ab|--------x----x--x--0------0----0-----------------------------|
Eb|--0--2--3----3--2--0-----------------------------------------|



Rhythm fig. 6
                                                                           
Eb|-------------------------------------------------------------|
Bb|-------------------------------------------------------------|
Gb|--------------2-----------------3\-2--0---------------2------|
Db|--------------2-----------------3\-2--0---------------2------|
Ab|-------------------------------------------------------------|
Eb|-0----0-3p-0-------0----0-3p-0-----------0----0-3p-0---------|
       P.M.              P.M.               P.M.

                                                                                   
Eb|-------------------------------------------------------------|
Bb|-------------------------------------------------------------|
Gb|---------------2--3--4---------------------------------------|
Db|---------------2--3--4---------------------------------------|
Ab|-------------------------------------------------------------|
Eb|-0----0--3p-0------------------------------------------------|
       P.M.


Rhythm fig. 7
                                                                                     
Eb|-------------------------------------------------------------|
Bb|-----------------3-------------------------------------------|
Gb|--4--------2--2--2------------2--2--4-----------------2------|
Db|--4--------2--2--0------------2--2--4-----------------2------|
Ab|--2--------0--0---------------0--0--2-----------------0------|
Eb|-------------------------------------------------3-----------|
                                       


Rhythm fig. 8
                                                                                           
Eb|-------------------------------------------------------------|
Bb|--3--3---3-------3--3---3------2----2-3--2-----2----2-3--2---|
Gb|--0--0---2-------0--0---2------2----2-2--2-----2----2-2--2---|
Db|--0--0---0-------0--0---0------2----2-4--2-----2----2-4--2---|
Ab|--x--x-----------x--x----------0----0-0--0-----0----0-0--0---|
Eb|--3--3-----------3--3----------------------------------------|


                                                                                              
Eb|-------------------------------------------------------------|
Bb|--3--3---3-------3--3---3------2---2-3--2--------------------|
Gb|--0--0---2-------0--0---2------2---2-2--2---4--4-4-4-4-4-4-4-|
Db|--0--0---0-------0--0---0------2---2-4--2---4--4-4-4-4-4-4-4-|
Ab|--x--x-----------x--x----------0---0-0--0---2--2-2-2-2-2-2-2-|
Eb|--3--3-----------3--3----------------------------------------|


Rhythm fig. 9 (P.M. on 6th throughout)
                                                                               
Eb|-------------------------------------------------------------|
Bb|-------------------------------------------------------------|
Gb|------------------------------2--3--4---------------2--------|
Db|------------------------------2--3--4---------------2--------|
Ab|-------------------------------------------------------------|
Eb|-0-0-0-0-0-0-0-0--0--0--0--0------------0--0--0--0-----0--0--|
    <- - - 7x - - >

                                                                               
Eb|-------------------------------------------------------------|
Bb|-------------------------------------------------------------|
Gb|----------3\-2--0----------------2-------------------2--3--4-|
Db|----------3\-2--0----------------2-------------------2--3--4-|
Ab|-------------------------------------------------------------|
Eb|-0-0-0-0----------0--0--0--0--0-----0--0--0--0--0--0---------|



Riff 1

Eb|------------------------------17~----------------------------|
Bb|-------------------------------------------------------------|
Gb|-------19b-19r-17-19p17----------------------5-7-7b-7r-5-----|
Db|--19~-------------------19p17--------------7-------------/9--|
Ab|-------------------------------------------------------------|
Eb|-------------------------------------------------------------|



Eb|-------------------------------------------------------------|
Bb|-----------10-12~--------------------------------------------|
Gb|----8-9-11---------------------------------------------------|
Db|--9----------------------------------------------------------|
Ab|-------------------------------------------------------------|
Eb|-------------------------------------------------------------|
    P.M. - - ->


Solo 

Eb|-------------------------------------------------------------|
Bb|------------------------------------11-12-11--------12/15\12-|
Gb|---------------------------------------------9-12~-----------|
Db|--------------------------5----------------------------------|
Ab|--1~---2~---5~---------/7---7\-------------------------------|
Eb|-------------------------------------------------------------|
            Whammy bar


Eb|-------------------------------------------------------------|
Bb|--10---------------------------------------------------------|
Gb|-----12~--9--------------------------------------------------|
Db|---------------------------------------------12-12-14-14-----|
Ab|---------------------------------12-12-14-14-----------------|
Eb|---------------12-12-14-14-15-15-----------------------------|
               P.M. - - - - - - - - - - - - - - - - - - >



Eb|-------------------------------------------------------------|
Bb|--12(/)--------12--12-12---12--12h15p12-------12-15p12h15p12-|
Gb|--12(/)--------14b----14b---------------14b------------------|
Db|-------------------------------------------------------------|
Ab|-------------------------------------------------------------|
Eb|-------------------------------------------------------------|
     Raise bar           < - 4x - - >


Eb|-----------------------------------12------------------------|
Bb|--------15p12----15p12-------15p12-15b-15b-15b-15b~----------|
Gb|--14b---------14-------14------------------------------------|
Db|-------------------------------------------------------------|
Ab|-------------------------------------------------------------|
Eb|-------------------------------------------------------------|
        < - - - 3x - - ->


Eb|-------------------------------------------------------------|
Bb|----------10-12----12~-11----11~-------------8---------------|
Gb|--9-11-12-------12--------11------------7(9)---9~---0(2)-2h4-|
Db|-------------------------------------------------------------|
Ab|-------------------------------------------------------------|
Eb|-------------------------------------------------------------|
                   Slide down while
                   picking      


Eb|-------------------------------------------------------------|
Bb|-------------------------------------------------------------|
Gb|--0-----2b-2b**-2b**-2b**-2b**-2b**-2b**---------------------|
Db|----2--------------------------------------------------------|
Ab|-------------------------------------------------------------|
Eb|-------------------------------------------------------------|
           Hold bend - - - - - - - - - - ->



Riff 2

Eb|------------------17b~-17b-17b-17b~-17-15--------------------|
Bb|--15b-15r---------------------------------17~----------------|
Gb|----------12~------------------------------------------------|
Db|-------------------------------------------------------------|
Ab|-------------------------------------------------------------|
Eb|-------------------------------------------------------------|
                      Hold bend ->


Riff 3

Eb|------------------------14--12--14--12-----------------------|
Bb|--/12-12-12-12\---------17b-15b-17b-15b~---------------------|
Gb|--/12-12-12-12\----------------------------------------------|
Db|-------------------------------------------------------------|
Ab|-------------------------------------------------------------|
Eb|-------------------------------------------------------------|




Riff 4

Eb|------------------17b~-17b-17b-17b~-17-15--------------------|
Bb|--15--------------------------------------17~----------------|
Gb|--14b--------------------------------------------------------|
Db|-------------------------------------------------------------|
Ab|-------------------------------------------------------------|
Eb|-------------------------------------------------------------|
                      Hold bend ->


Riff 5

Eb|---------------------15---15--14---12---14--12---------------|
Bb|--12(15)--15b~-------18b--18b-17b--15b--17b-15b~-------------|
Gb|-------------------------------------------------------------|
Db|-------------------------------------------------------------|
Ab|-------------------------------------------------------------|
Eb|-------------------------------------------------------------|
                       Hold bend


Riff 6

Eb|---------------------------------------------12\-------------|
Bb|--15--------------------------------------12-12\-------------|
Gb|--14b~--14-12---------------------12~--14--------------------|
Db|--------------14~------14~--12-14----------------------------|
Ab|-------------------------------------------------------------|
Eb|-------------------------------------------------------------|



Riff 7

Eb|-------------19---------------------------15---15--14--------|
Bb|--20b~--20b~----20~--17h20p17--20-17~-----18b--18b-17b-------|
Gb|-------------------------------------------------------------|
Db|-------------------------------------------------------------|
Ab|-------------------------------------------------------------|
Eb|-------------------------------------------------------------|


Eb|--12---------------------------------------------------------|
Bb|--15b--12----------------------------------------------------|
Gb|-------14b---------------------------------------------------|
Db|-------------------------------------------------------------|
Ab|------------0------------------------------------------------|
Eb|-------------------------------------------------------------|


THOU SHALT NOT
Simmons, Damon

[Rhy. Fig 1a]
[Rhy. Fig 2 & 3]
[Rhy. Fig 5a]

[Rhy. Fig 6]
I lived most of my life in New York City
I was born and raised in the promised land
One day this man in black said, "Listen Jack"
Told me I was chosen, to kiss the ring on his hand

[Rhy. Fig 7]
He said "Kindly reconsider the sins of your past"
And I said, "Mister you can kindly kiss my ass"
[Rhy. Fig 1a]

[Rhy. Fig 4 & 3]
"Thou shalt not"
But I know what I want, "Thou shalt not"
[Rhy. Fig 1b]
[Rhy. Fig 4 & 3]
"Thou shalt not"
But I know what I need, "Thou shalt not"
[Rhy. Fig 5a]

[Rhy. Fig 6]
Well, the son of a bitch must be crazy
Tellin me I叮 gonna go down
I said "this ain另 the inquisition, tou ain另 the son of God
And I sure as hell don另 give a damn!"

[Rhy. Fig 7]
He said "You叵e long gone, can另 you tell?"
And I said "Mister if I叮 going, Ill see you in hell"
[Rhy. Fig 1b]

[Rhy. Fig 4 & 3]
"Thou shalt not"
But I know what I want, "Thou shalt not"
[Rhy. Fig 1b]
[Rhy. Fig 4 & 3]
"Thou shalt not"
But I know what I need, "Thou shalt not"
[Rhy. Fig 5b]

[Rhy. Fig 4 & 3]
"Thou shalt not"
Gotta live my life, "Thou shalt not"
[Rhy. Fig 1b]
[Rhy. Fig 4 & 3]
"Thou shalt not"
Any way I please, "Thou shalt not"
[Rhy. Fig 1b]
[Rhy. Fig 2]

[Rhy. Fig 8 with Riff 1]
Don另 even try
You know I卡 die to be free
And you wonder why
You can另 bring this guy to his knees

[See comments]
Cause I know what I want
Yes, I know what I need
Well, I know what I want, I know what I need
Gotta live my life just the way I please

[Solo over Rhy. Fig 9]

[See comments]
Cause I know what I want
Yeaaahhhhh!

[Rhy. Fig 4 & 3 with Riff 2]
"Thou shalt not""Thou shalt not"
[Rhy. Fig 1b]
[Rhy. Fig 4 & 3 with Riff 3]
"Thou shalt not""Thou shalt not"
[Rhy. Fig 5b]

[Rhy. Fig 4 & 3 with Riff 4]
"Thou shalt not"
But I know what I want, "Thou shalt not"
[Rhy. Fig 1b]
[Rhy. Fig 4 & 3 with Riff 5]
"Thou shalt not"
Oh yes I do, "Thou shalt not"
[Rhy. Fig 5b]

[Rhy. Fig 4 & 3 with Riff 6]
"Thou shalt not"
I叮 gonna live my life, "Thou shalt not"
[Rhy. Fig 1b]
[Rhy. Fig 4 & 3 with Riff 7]
"Thou shalt not"
Any way I chose, "Thou shalt not"
[Rhy. Fig 5c]

[Rhy. Fig 1b]
[Rhy. Fig 2]

"You got that right"

9.Every Time I Look at You - Stanley, Ezrin 

Rhythm Fig. 1a (Steel-string acoustic, capo 2nd fret)
                                                 
Eb|--3----3---3-0--0--3--5------------------------------|
Bb|--3----3---3-1--3--5--7------------------------------|
Gb|--0----0---0-2--4--5--7------------------------------|
Db|--0----0-----2--4--5--7------------------------------|
Ab|--x----x-----0-----3--5------------------------------|
Eb|--3----3---------------------------------------------|




Rhythm Fig. 1b (Steel-string acoustic, capo 2nd fret)
                                            
Eb|--3----3----0--0--0--2------------------------------|
Bb|--3----3----1--3--1--3------------------------------|
Gb|--0----0----2--4--0--2------------------------------|
Db|--0----0----2--4--2--0------------------------------|
Ab|--x----x----0-----3---------------------------------|
Eb|--3----3--------------------------------------------|




Rhythm Fig. 2a (Steel-string acoustic, capo 2nd fret)
                                                    
Eb|--3----3---3-0--0--3--5-------5--------5-------------|
Bb|--3----3---3-1--3--5--7----------7--------5h7--------|
Gb|--0----0---0-2--4--5--7------------7----------7------|
Db|--0----0-----2--4--5--7------------------------------|
Ab|--x----x-----0-----3--5------------------------------|
Eb|--3----3---------------------------------------------|




Rhythm Fig. 2b (Steel-string acoustic, capo 2nd fret)
                                                     
Eb|--3----3----0--0--0--2-------2-------2-----0h2-------|
Bb|--3----3----1--3--1--3----------3------3-------3-----|
Gb|--0----0----2--4--0--2------------2------2-----------|
Db|--0----0----2--4--2--0-------------------------------|
Ab|--x----x----0-----3----------------------------------|
Eb|--3----3---------------------------------------------|




Rhythm Fig. 3a (Steel-string acoustic, capo 2nd fret)
                                               
Eb|--3----3---3-0--0--3--5------------------------------|
Bb|--3----3---3-1--3--5--7------------------------------|
Gb|--0----0---0-2--4--5--7------------7*----------------|
Db|--0----0-----2--4--5--7------------7*----------------|
Ab|--x----x-----0-----3--5-------5*---------------------|
Eb|--3----3---------------------------------------------|





Rhythm Fig. 4a (Steel-string acoustic, capo 2nd fret)
                                            
Eb|--3-----------------3--------3-----------------------|
Bb|--3-----------------1--------1-----------------------|
Gb|--0-----------------2--------0--------0--------------|
Db|--0-----------------3--------2----0h2----------------|
Ab|--x--------------------------3-----------------------|
Eb|--3--------------------------------------------------|


                                            
Eb|--3--------2---------1--------0----------------------|
Bb|--3--------3---------1--------1----1--3--------------|
Gb|--0--------4---------2--------0----0--0--------------|
Db|--0--------4---------3--------2----2--0--------------|
Ab|--x--------2---------3--------3----3--2--------------|
Eb|--3------------------1-------------------------------|




Rhythm Fig. 4b (Steel-string acoustic, capo 2nd fret)

Eb|--3-----------------3--------3-----------------------|
Bb|--3-----------------1--------1-----------------------|
Gb|--0-----------------2--------0--------0--------------|
Db|--0-----------------3--------2----0h2----------------|
Ab|--x--------------------------3-----------------------|
Eb|--3--------------------------------------------------|


                                                  
Eb|--3--------2---------1----0--------------------------|
Bb|--3--------3---------1----1--------------------------|
Gb|--0--------4---------2----0--------0-------0---------|
Db|--0--------4---------3----2------2---2---0---0-------|
Ab|--x--------2---------3----3----3-------2-------------|
Eb|--3------------------1-------------------------------|



Rhythm Fig. 5a (Steel-string acoustic, capo 2nd fret)
                                               
Eb|--0-----------------2----2--2-2-3--2--0--2-----------|
Bb|--1-----------------3----3--3-3-3--3--3--3-----------|
Gb|--2-----------------2----2------2--2--2--2-----------|
Db|--2-----------------0----0------0--0--0--0-----------|
Ab|--0--------------------------------------------------|
Eb|-----------------------------------------------------|


                                         
Eb|--0-----------------0--------2-----------------------|
Bb|--1-----------------1--------3-----------------------|
Gb|--2-----------------0--------2-----------------------|
Db|--2-----------------2--------0-----------------------|
Ab|--0-----------------3--------------------------------|
Eb|-----------------------------------------------------|



Rhythm Fig. 5b (Steel-string acoustic, capo 2nd fret)
                                                
Eb|--0-----------------2----2--2-2-2h3-2--0-------------|
Bb|--1-----------------3----3--3-3-3---------3----------|
Gb|--2-----------------2----2---------------------------|
Db|--2-----------------0----0---------------------------|
Ab|--0--------------------------------------------------|
Eb|-----------------------------------------------------|


                                         
Eb|--0-----------------0--------2-----------------------|
Bb|--1-----------------1--------3-----------------------|
Gb|--2-----------------0--------2-----------------------|
Db|--2-----------------2--------0-----------------------|
Ab|--0-----------------3--------------------------------|
Eb|-----------------------------------------------------|




Rhythm Fig. 6a (Steel-string acoustic, capo 2nd fret)
                                             
Eb|--0--------2---------3--------0--0--3--5-------------|
Bb|--0--------3---------3--------1--3--5--7-------------|
Gb|--0--------2---------0--------2--4--5--7-------------|
Db|--2--------0---------0--------2--4--5--7-------------|
Ab|--2------------------x--------0-----3--5-------------|
Eb|--0------------------3-------------------------------|


                                               
Eb|------5--------3-3-3-3-3/5---------------------------|
Bb|---------7-----5-5-5-5-5/7---------------------------|
Gb|-----------7---5-5-5-5-5/7---------------------------|
Db|---------------5-5-5-5-5/7---------------------------|
Ab|-----------------------------------------------------|
Eb|-----------------------------------------------------|



Rhythm Fig. 6b (Steel-string acoustic, capo 2nd fret)
                                             
Eb|--0--------2---------3--------0--0--0--2-------------|
Bb|--0--------3---------3--------1--3--1--3-------------|
Gb|--0--------2---------0--------2--4--0--2-------------|
Db|--2--------0---------0--------2--4--2--0-------------|
Ab|--2------------------x--------0-----3----------------|
Eb|--0------------------3-------------------------------|


                                               
Eb|------5--------3-3-3-3-3/5---------------------------|
Bb|---------7-----5-5-5-5-5/7---------------------------|
Gb|-----------7---5-5-5-5-5/7---------------------------|
Db|-----------------------------------------------------|
Ab|-----------------------------------------------------|
Eb|-----------------------------------------------------|



Rhythm Fig. 7a (Steel-string acoustic, capo 2nd fret)
                                                        
Eb|--0---0-------------2--------3-----3-----0--0--3--5--|
Bb|--0------0--------3----3-----3--------3--1--3--5--7--|
Gb|--0--------0----2--------2---0--0--------2--4--5--7--|
Db|--2-----------0--------------0-----------2--4--5--7--|
Ab|--2--------------------------x-----------0-----3--5--|
Eb|--0--------------------------3-----------------------|



Eb|------5--------3-3-3-3-3/5---------------------------|
Bb|---------7-----5-5-5-5-5/7---------------------------|
Gb|-----------7---5-5-5-5-5/7---------------------------|
Db|---------------5-5-5-5-5/7---------------------------|
Ab|-----------------------------------------------------|
Eb|-----------------------------------------------------|



Rhythm Fig. 7b (Steel-string acoustic, capo 2nd fret)
                                                     
Eb|--0---0-------------2--------3--------0--0--0--2-----|
Bb|--0------0--------3----3-----3--------1--3--1--3-----|
Gb|--0--------0----2--------2---0--------2--4--0--2-----|
Db|--2-----------0--------------0--------2--4--2--0-----|
Ab|--2--------------------------x--------0-----3--------|
Eb|--0--------------------------3-----------------------|


                                                 
Eb|------5----10----3-3-3-3-3/5-------------------------|
Bb|---------7-----7-5-5-5-5-5/7-------------------------|
Gb|-----------------5-5-5-5-5/7-------------------------|
Db|-----------------------------------------------------|
Ab|-----------------------------------------------------|
Eb|-----------------------------------------------------|



Rhythm Fig. 8a (Steel-string acoustic, capo 2nd fret)
                                                
Eb|--3--------3------------3--------3-------------------|
Bb|--3--------1------------3--------1-------------------|
Gb|--0--------0--------0---0--------0--------0----------|
Db|--0--------2----0h2-----0--------2----0h2------------|
Ab|--x--------3------------x--------3-------------------|
Eb|--3---------------------3----------------------------|



Rhythm Fig. 8b (Steel-string acoustic, capo 2nd fret)
                                                      
Eb|--3----------------3------------3--------3-----------|
Bb|--3------1p0---0---1------------3--------1-----------|
Gb|--0----0-----2---0-0--------0---0--------0--------0--|
Db|--0----------------2----0h2-----0--------2----0h2----|
Ab|--x----------------3------------x--------3-----------|
Eb|--3-----------------------------3--------------------|



Rhythm Fig. 9 (Distorted electric)
                                               
Eb|-----------------------------------------------------|
Bb|-----------------------------------------------------|
Gb|-----------------------5-----------------------------|
Db|--3--------------------5-----------------------------|
Ab|--3--------------------3--------3--5--7--3-----------|
Eb|--1--------1--3--5-----------------------------------|


                                                
Eb|-----------------------------------------------------|
Bb|-----------------------------------------------------|
Gb|--------------------------7--------7----5------------|
Db|--5-----------------------7--------7----5------------|
Ab|--5------------5--5h7-5---5--------5----3------------|
Eb|--3--------5/7---------------------------------------|


                                               
Eb|-----------------------------------------------------|
Bb|-----------------------------------------------------|
Gb|-----------------------5-----------------------------|
Db|--3--------------------5-----------------------------|
Ab|--3--------------------3--------3--5--7--3-----------|
Eb|--1--------1--3--5-----------------------------------|


                                            
Eb|-----------------------------------------------------|
Bb|-----------------------------------------------------|
Gb|--7------7--7----------------------------------------|
Db|--7------7--7---------2------2--2--------------------|
Ab|--5------5--5---------2------2--2--------------------|
Eb|----------------------0------0--0--------------------|




Rhythm Fig. 10 (Distorted electric)
                                          
Eb|-----------------------------------------------------|
Bb|---------------------3------3------------------------|
Gb|--2------2-----------2------2------------------------|
Db|--2------2-----------0------0------------------------|
Ab|--0------0-------------------------------------------|
Eb|-----------------------------------------------------|


                                           
Eb|-----------------------------------------------------|
Bb|---------------------3--------3----------------------|
Gb|--2------2-----------2--------2----------------------|
Db|--2------2-----------0--------0----------------------|
Ab|--0------0-------------------------4-----------------|
Eb|-----------------------------------------------------|




Rhythm Fig. 11 (Distorted electric)
                                         
Eb|-----------------------------------------------------|
Bb|-----------------------------------------------------|
Gb|--4------------7-----9-------------------------------|
Db|-----------------------------------------------------|
Ab|--2------------5-----7-------------------------------|
Eb|-----------------------------------------------------|


                                         
Eb|-----------------------------------------------------|
Bb|-----------------------------------------------------|
Gb|--4--------7-----------------------------------------|
Db|-----------------------------------------------------|
Ab|--2--------5---------7-------------------------------|
Eb|---------------------0-------------------------------|





Rhythm Fig. 12a (Steel-string acoustic, capo 2nd fret)
                                            
Eb|--3----3----0--0--0-----3----------------------------|
Bb|--3----3----1--3--1-----3----------------------------|
Gb|--0----0----2--4--0-----0----------------------------|
Db|--0----0----2--4--2-----0----------------------------|
Ab|--x----x----0-----3-----x----------------------------|
Eb|--3----3----------------3----------------------------|





Rhythm Fig. 12b (Steel-string acoustic, capo 2nd fret)
                                            
Eb|--3----3----0--0--3-----3----------------------------|
Bb|--3----3----1--3--5-----3----------------------------|
Gb|--0----0----2--4--5-----0----------------------------|
Db|--0----0----2--4--5-----0----------------------------|
Ab|--x----x----0-----3-----x----------------------------|
Eb|--3----3----------------3----------------------------|





Riff 1 (Distorted electric)
                                         
Eb|-----------------------------------------------------|
Bb|-----------------------------------------------------|
Gb|-----------------------------------------------------|
Db|-----------------------------------------------------|
Ab|--12\------------------------------------------------|
Eb|-----------------------------------------------------|





Riff 2 (Distorted electric)

Eb|-----------------------------------------------------|
Bb|-----------------------------------------------------|
Gb|-----------------------------------------------------|
Db|------------7-----5p-4-2h-4--2~----2~-----2----------|
Ab|--5---7/-9-------------------------------------------|
Eb|-----------------------------------------------------|



Riff 3 (Distorted electric)

Eb|--19-------------------------------------------------|
Bb|------------------12------------------/14~--12-------|
Gb|---------------------11b---9-11-9~----/13~--11-------|
Db|-----------------------------------------------------|
Ab|-----------------------------------------------------|
Eb|-----------------------------------------------------|




Solo (Distorted electric)

Eb|------------------------------------------------------------------|
Bb|-------------2-----------------------------------7~-----7p5-------|
Gb|-------------2-----2--4b--r4-2h-4--2~------2/-7-------------------|
Db|------------------------------------------------------------------|
Ab|--0----2/4--------------------------------------------------------|
Eb|------------------------------------------------------------------|



Eb|------------------------------------------------------------------|
Bb|------10---------14---15p14-12----------------(10)----------------|
Gb|-------------------------------14-----11/--13--11~----------------|
Db|--/11--------/14----------------------12/--14--12~----------------|
Ab|------------------------------------------------------------------|
Eb|------------------------------------------------------------------|
                Let ring - - - - - >


Eb|---------------------------14/--16--14~---------------------------|
Bb|--17-----17----------------15/--17--15~------------------15-------|
Gb|--16b----16b--r16--14-----------------------14------14-------14---|
Db|-----------------------16-------------------14h-16----------------|
Ab|------------------------------------------------------------------|
Eb|------------------------------------------------------------------|
   < 4x >                                      Let ring - - - - - >


Eb|-------------------------------------------------------14---------|
Bb|--/14--------15p14------/17----15----14--------15/-17--15---------|
Gb|--/14-----14-------14---/16----14----14--------14/-16-------------|
Db|--/14-------------------/18----16----14---------------------------|
Ab|------------------------------------------------------------------|
Eb|------------------------------------------------------------------|



EVERY TIME I LOOK AT YOU
Paul Stanley, Bob Ezrin

[Rhy. Fig 1a w/ Rhy. Fig 1b] (2x)

[Rhy. Fig 4a w/ Rhy. Fig 4b]
Tryin' to say I'm sorry, didn't mean to break your heart 
And find you waitin' up by the light of day 
There's a lot I want to tell you, but I don't know where to start 
And I don't know what I'd do if you walked away 

[Rhy. Fig 5a w/ Rhy. Fig 5b]
Ooh, baby I tried to make it, I just got lost along the way 

[Rhy. Fig 2a w/ Rhy. Fig 2b] (2x)
But every time I look at you, no matter what I'm goin' thru, it's easy to see 
[Rhy. Fig 6a w/ Rhy. Fig 6b]
And every time I hold you, the things I never told you, seem to come easily 
'Cause you're everything to me 

[Rhy. Fig 8a w/ Rhy. Fig 8b]

[Rhy. Fig 4a w/ Rhy. Fig 4b]
I never really wanted to let you get inside my heart 
I wanted to believe this would soon be ending 
I thought it wouldn't matter, if it all just came apart 
But now I realize I was just pretending 

[Rhy. Fig 5a w/ Rhy. Fig 5b]
Ooh, baby, I know I hurt you, but you can still believe in me 

[Rhy. Fig 2a w/ Rhy. Fig 2b] (2x)
But every time I look at you, no matter what I'm goin' thru, it's easy to see 
[Rhy. Fig 6a w/ Rhy. Fig 6b]
And every time I hold you, the things I never told you, seem to come easily 
'Cause you're everything to me 
[Riff 1]

[Rhy. Fig 9 w/ Riff 2]
It's gonna take a little time to show you, just what you mean to me, oh yeah 
It seems the more I get to know you, the more I need to make you see 
You're everything I need, yeah 

[Solo over Rhy. Fig 10]
Oho, I need ya, I need ya, I need ya... 

[Rhy. Fig 5a w/ Rhy. Fig 5b, Rhy. Fig 11 and Riff 3]
Ooh, baby, baby, baby, I know I hurt you, but you can still believe in me 

[Rhy. Fig 3a w/ Rhy. Fig 1b]
But every time I look at you, no matter what I'm goin' thru, it's easy to see 
[Rhy. Fig 7a w/ Rhy. Fig 7b]
And every time I hold you, the things I never told you, seem to come easily 
'Cause you're everything to me 

[Rhy. Fig 1a w/ Rhy. Fig 1b] (2x)
You're everything to me, you're everything to me 

[Rhy. Fig 12a w/ Rhy. Fig 12b]

10.Paralyzed -  Simmons, Ezrin

tune down a whole step

Rhythm fig. 1
                                                                        
D|----------------------------------------------------------------------|
A|----------------------------------------------------------------------|
F|----------------------------------------------------------------------|
C|----------------------------------------------------------------------|
G|----------------------------------------------------------------------|
D|-0h2-2-2-2-2-2-2-2-2-2-2-2-2-2-2-2-2-2-2-2-2-2-2-2-2-2-2-2-2-2-2------|
       P.M. - - - - - - - - - - - - - - - - - - - - - - - - - - ->

                                                                                
D|----------------------------------------------------------------------|
A|----------------------------------------------------------------------|
F|----------2------------2--------------2-------------------------------|
C|----------2------------2--------------2-------------------------------|
G|----------------------------------------------------------------------|
D|--0h2-2-2------0h2-2-2--------0h2-2-2-----0-2p0-3p0-4p0-5-------------|
        P.M.         P.M.           P.M.


Rhythm fig. 2
                                                                          
D|----------------------------------------------------------------------|
A|----------------------------------------------------------------------|
F|----------------------------------------------------------------------|
C|-2--------------------------------------------------------------------|
G|-2---x\---------------------------------------------------------------|
D|-0---x\-0h2-2-2-2-2-2-2-2-2-2-2-2-2-2-2-0h2-2-2-2-2-2-0-2p0-3p0-4p0-5-|
              P.M. - - - - - - - - - - ->          P.M. - ->    

                                                                         
                                                         
D|----------------------------------------------------------------------|
A|----------------------------------------------------------------------|
F|----------------------2------------2--------------2-------------------|
C|-2--------------------2------------2--------------2----4--------------|
G|-2------x\---------------------------------------------4--------------|
D|-0------x\----0h2-2-2------0h2-2-2--------0h2-2-2------2----0h2p0-----|
                    P.M.         P.M.           P.M.


 

Rhythm fig. 3
                                                                  
D|----------------------------------------------------------------------|
A|-----10-10-10-10---9-9-9-9---10------10-10-10-10---9-9-9-9---10-------|
F|-----9--9--9--9----9-9-9-9---9-------9--9--9--9----9-9-9-9---9--------|
C|----------------------------------------------------------------------|
G|--5-------------------------------------------------------------------|
D|----------------------------------------------------------------------|


                                                            
D|----------------------------------------------------------------------|
A|----------------------------------------------------------------------|
F|----------------------------------------------------------------------|
C|----------------------------------------------------------------------|
G|----------------------5---------/7------------------------------------|
D|--0-0-0-0-0-0-0-0-0-0---7p5\3-0------------0-0--2--3--0---------------|
    P.M. - - - - - - ->

                                                                  
D|----------------------------------------------------------------------|
A|-----10-10-10-10---9-9-9-9---10------10-10-10-10---9-9-9-9---10-------|
F|-----9--9--9--9----9-9-9-9---9-------9--9--9--9----9-9-9-9---9--------|
C|----------------------------------------------------------------------|
G|--5-------------------------------------------------------------------|
D|----------------------------------------------------------------------|


                                                                                   
D|----------------------------------------------------------------------|
A|----------------------------------------------------------------------|
F|---------------------------------------------------------2------------|
C|----------------------------------------------------4----2------------|
G|--------------------------5-------------------------4----0------------|
D|--0-0-0-0-0-0-0-0-0-0-0-0---7p5-0---2-2-2-2-2-2-2-2-2-----------------|
    P.M. - - - - - - - - ->           P.M. - - - - ->


Rhythm fig. 4a
                                                                                       
D|----------------------------------------------------------------------|
A|----------------------------------------------------------------------|
F|--2--4--4------------------2------------------2------------------2----|
C|--2--4--4------------------2-----2--2---------2-----2--2----4----2----|
G|--0--2--2------------------0-----2--2---------0-----2--2----4----0----|
D|---------------------------------0--0---------------0--0----2---------|




Rhythm fig. 4b
                                                                     
D|----------------------------------------------------------------------|
A|--10--12--12--------------10------------------10-----------------10---| 
F|--9---11--11--------------9------9--9---------9----9--9----11----9----| 
C|--7---9---9---------------7------9--9---------7----9--9----11----7----| 
G|---------------------------------7--7--------------7--7----9----------| 
D|----------------------------------------------------------------------|




Rhythm fig. 5a
                                                                
D|----------------------------------------------------------------------|
A|----------------------------------------------------------------------|
F|--2--4--4----------------2--------------------------------------------|
C|--2--4--4----------------2----2--2----------2----4--4---------0-------|
G|--0--2--2----------------0----2--2----------2----4--4-----------2p0-2-|
D|------------------------------0--0----------0----2--2-----0h2---------|




Rhythm fig. 5b
                                                                        
D|----------------------------------------------------------------------|
A|--10--12--12------------10--------------------------------------------|
F|--9---11--11------------9----9--9-----------9---11--11----------------|
C|--7---9---9-------------7----9--9-----------9---11--11--------0-------| 
G|-----------------------------7--7-----------7---9---9-----------2p0-2-| 
D|----------------------------------------------------------0h2---------| 



Rhythm fig. 6
                                                                                         
D|----------------------------------------------------------------------|
A|----------------------------------------------------------------------|
F|----11-11-11-11---10-10-10-10---11------11-11-11-11-------------------|
C|----9--9--9--9----9--9--9--9----9-------9--9--9--9--------------------|
G|----------------------------------------------------------------------|
D|-----------------------------------------------------0-2--3--4--5-----|




Rhythm fig. 7
                                                                              
D|----------------------------------------------------------------------|
A|----------------------------------------------------------------------|
F|----------------------------------------------------------------------|
C|----------------------------------------------------------------------|
G|--2----4-2-4-4--2---4-2-4---2----4-2-4-4--2---4-2-4-2-----------------|
D|------------------------------------------------------4-2---4--4\-----|



Rhythm fig. 8a
                                                                                
D|-----------------------------------------------------------------------|
A|-----------------------------------------------------------------------|
F|-----------------------------------------------------------------------|
C|----------------------------------------------------------------6------|  
G|-2--4-2-4-4--2--4-2-4--2--4-2-4-4--2--4-2-4-2-------------------6------|
D|----------------------------------------------4-2-4-4\--2-4--4\-4-2h4p2|

                                                                                  

Rhythm fig. 8b
                                                                              
D|-----------------------------------------------------------------------|
A|-----------------------------------------------------------------------|
F|-----------------------------------------------------------------------|
C|-4--6-4-6-6--4--6-4-6--4--6-4-6-6--4--6-4-6-4--------------------------|
G|----------------------------------------------6-4-6-6\--4-6--6\--------|
D|-----------------------------------------------------------------------|




Rhythm fig. 9
                                        
D|----------------------------------------------------------------------|
A|----------------------------------------------------------------------|
F|----11-11-11-11---10-10-10-10--10-11----------------------------------|
C|----9--9--9--9----9--9--9--9---9--9-----------------------------------|
G|----------------------------------------------------------------------|
D|----------------------------------------------------------------------|



Riff 1

D|----------------------------------------------------------------------|
A|----------------------------------------------------------------------|
F|---------------4b**----4**--------------------------------------------|
C|---2(4)---------------------------------------------------------------|
G|----------------------------------------------------------------------|
D|---------------------------0------------------------------------------|








Riff 2

D|----------------------------------------------------------------------|
A|-----------------10---10----------------------------------------------|
F|-----------11----9----9-----------------------------------------------|
C|-----------11----7----7-----------------------------------------------|
G|-----------9----------------------------------------------------------|
D|--2-------------------------------------------------------------------|




Riff 3

D|--------------------------9-----12----14----14--14-14------17b-17r~---|
A|--15------x-10b-10r~------12b~--15b~--17b~--17b--------17-------------|
F|--14b-----------------------------------------------------------------|
C|----------------------------------------------------------------------|
G|----------------------------------------------------------------------|
D|----------------------------------------------------------------------|



Riff 4

D|------------------------12--12-12----15p-12~--------------------------|
A|------------------------15b-------15--------------15p-12----12-15b~---|
F|---------------------------------------------------------14-----------|
C|--2p**-0---------2**--------------------------------------------------|
G|-------2p**-0---------------------------------------------------------|
D|------------3**-------------------------------------------------------|



D|-----------------------14---------------------------------------------|
A|---17p-14----14-17b~---17b~-------------------------------------------|
F|----------16----------------------------------------------------------|
C|----------------------------------------------------------------------|
G|----------------------------------------------------------------------|
D|----------------------------------------------------------------------|



Riff 5

D|----------------------------------------------------------------------|
A|----------------------------------------------------------------------|
F|----------------------------------------------------------------------|
C|----------------------------------------------------------------------|
G|-----5**-----7**-----------5**-----7**--------------------------------|
D|--0-------0-------------0-------0-------------------------------------|
   P.M.    P.M.          P.M.    P.M.









Riff 6

D|-------------------------------19~------16--16-16-16--16-16-16h-19-16~|
A|--19b-19-19b-19r-17~--\--17-17----------19b-------19b-----------------|
F|----------------------------------------------------------------------|
C|----------------------------------------------------------------------|
G|----------------------------------------------------------------------|
D|----------------------------------------------------------------------|



D|--18--18-18--18--18-18------------------------------------------------|
A|--21b--------21b--------21b-21r-19~-----------------------------------|
F|----------------------------------------------------------------------|
C|----------------------------------------------------------------------|
G|----------------------------------------------------------------------|
D|----------------------------------------------------------------------|



Riff 7

D|----------------------------------------------------------------------|
A|--17b---17-15--17p-15-------------------------------------------------|
F|-----------------------16-14-16-----16-------------/16~---------------|
C|----------------------------------------14------12--------------------|
G|----------------------------------------------------------------------|
D|----------------------------------------------------------------------|



Riff 8

D|----------------------------------------------------------------------|
A|--10b~--7----7-------------7~--7--------------------------------------|
F|----------10---10-9-7------------10-9-7-------------------------------|
C|-----------------------------------------7h-9-------------------------|
G|----------------------------------------------------------------------|
D|----------------------------------------------------------------------|
                                     Feedback



Riff 9

D|----------------------------------------------------------------------|
A|-------------15-17b~---------------------------------15---------------|
F|------14-16------------------------------------14-16----16~-----------|
C|--/16-----------------------------------------------------------------|
G|----------------------------------------------------------------------|
D|----------------------------------------------------------------------|
               Slowly release bend while
               picking 4 times with a "nervous"
               vibrato







Riff 10

D|---14-----------14----------14----------------------------------------|
A|---17b~--17-15-17b~--17-15--17b~--------------------------------------|
F|----------------------------------------------------------------------|
C|-----------------------------------16-16~-----------------------------|
G|----------------------------------------------------------------------|
D|----------------------------------------------------------------------|




Riff 11

D|----------------------------------------------------------------------|
A|----------15----------------------------------------------------------|
F|-------------16-14-16\------------------------------------------------|
C|--14h-16--------------------------------------------------------------|
G|----------------------------------------------------------------------|
D|----------------------------------------------------------------------|




Solo (with octave divider during first part)
                                                                   
D|-----------------------------------------------------------------------|
A|-----------------------------------------------------------------------|
F|----------------------------0--------------------2b2p0-2-0-------------|
C|----2-0---0-2--2--2-0---0-2---2----2-0---0-2--2------------2-----------|
G|--------2-------------2----------------2-------------------------------|
D|--0--------------------------------------------------------------------|


                                                       
D|---------------------------------2-------------------------------------|
A|-----------------------------------5-2---------/7~---------------------|
F|--------------2-4-4b-2-4b---2----------5-4-2---------------------------|
C|--4---------4-----------------4~---------------------------------------|
G|-----------------------------------------------------------------------|
D|-----------------------------------------------------------------------|


                                                                       
D|------12-------12-15p12----12-----------12-------12-15p12----12--------|
A|---------15p12----------15----15-12--------15p12----------15----15-12--|
F|--14b-------------------------------14b--------------------------------|
C|-----------------------------------------------------------------------|
G|-----------------------------------------------------------------------|
D|-----------------------------------------------------------------------|


                                                                                          
D|-15p12---15p12---15p12--15p12--15b-15~-------------14--------------17--|
A|------15------15------15-----15---------16p14------17b--16p14------20b-|
F|----------------------------------------16p14-----------16p14----------|
C|---------------------------------------------16-14-----------16-14-----|
G|-----------------------------------------------------------------------|
D|-----------------------------------------------------------------------|


                                                   
D|--14---16---17---19---21--19--22~--------------------------------------|
A|--17b--19b--20b--------------------------------------------------------|
F|-----------------------------------------------------------------------|
C|-----------------------------------------------------------------------|
G|-----------------------------------------------------------------------|
D|-----------------------------------------------------------------------|






PARALYZED
Simmons, Ezrin

[Intro: Rhy. fig 1 with Riff 1]

[Rhy. fig 2]
Who cares..I叮 in trance..
I got no hope..I don另 stand a chance..
But it叫 all right
Yes, it叫 all right

Who knows, well I don另 care
Cause I don另 fit in anywhere
But it叫 all right
Yes, it叫 all right

[Rhy. fig 3 with Riff 2]
Well, I叮 numb but that叫 my style
I史e been numb for a little while
And it叫 all right
Yes, it叫 all right

I checked out yesterday
Well, there叫 nothing left to say
But it叫 all right
Yes, it叫 all right

[Rhy. fig 4a & 4b]
Don另 see nothing in my eys
Cause man I史e been lobotomized

[Rhy. fig 5a & 5b]
Cool inside, anesthetized
Cause life has got me paralyzed

[Rhy. fig 6]

[Rhy. fig 2 with Riff 3]
Who says I have to pay
I didn另 want this anyway
But it叫 all right
Yes, it叫 all right

Who says life is good
"Love thyself," well I never could
But it叫 all right
Yes, it叫 all right

[Rhy. fig 3 with Riff 4]
I叮 here dressed in black
Waiting for a heart attack
But it叫 all right
Yes可t叫 all right

Try to talk I just can另 speak
The urge is strong, but my brain is weak
And it叫 all right
Yes it叫 all right

[Rhy. fig 4a & 4b with Riff 5]
Don另 see nothing in my eys
Cause man I史e been lobotomized

[Rhy. fig 5a & 5b]
Cool inside, anesthetized
Cause life has got me paralyzed

[Rhy. fig 6]

[Rhy. fig 7]
[Rhy. fig 8a & 8b]

[Solo over Rhy. fig 2]

[Rhy. fig 3 with Riff 6]
And who says life is good
"Love thyself," well I never could
But it叫 all right
Yes, it叫 all right

I checked out yesterday
Well, there叫 nothing left to say
But it叫 all right
Yes, it叫 all right

[Rhy. fig 4a & 4b with Riff 7]
Dont see nothin in my eyes
Cause man Ive been lobotomized .. I叮 paralyzed

[Rhy. fig 4a & 4b with Riff 8]
Cold inside anesthetized
Yeah, I'm kinda feelin otherwise .. I叮 paralyzed

[Rhy. fig 4a & 4b with Riff 9]
Don另 see nothin in my eyes
Cause man Ive been lobotomized .. I叮 paralyzed

[Rhy. fig 5a & 5b with Riff 10]
Cold inside anesthetized
Yeah, Im kinda feelin otherwise .. I叮 paralyzed

[Rhy. fig 9 with Riff 11]

11. I Just Wanna - Stanley, Vincent

tune down 1/2 step
Rhythm fig. 1
                                                                         
Eb|-----------------------------------------0---------------------|
Bb|-----------------------------------------0---------------------|
Gb|--9------9----7----7------2------------------------------------| 
Db|--9------9----7----7------2-------2----------------------------| 
Ab|--7------7----5----5------0-------2----------------------------| 
Eb|-------------------------------3--0----------------------------| 




 
Eb|---------------------------------------------------------------|
Bb|---------------------------------------------------------------|
Gb|--9------9----7----7------2------------------------------------|
Db|--9------9----7----7------2-------2----------------------------|
Ab|--7------7----5----5------0-------2----------------------------|
Eb|-------------------------------3--0----0--3p-0-----------------|




Rhythm fig. 2
                                                                                            
Eb|---------------------------------------------------------------|
Bb|---------------------------------------------------------------|
Gb|-----2--------2---------2-----7---7--------2--------2--------2-|
Db|-----2--------2---------2-----7---7--------2--------2--------2-|
Ab|------------------------------5---5----------------------------|
Eb|-5~------3~--------2~------------------5~------3~--------2~----|


                                                                         
Eb|---------------------------------------------------------------|
Bb|---------------------------------------------------------------|
Gb|-7--4---4------4------4----4--7--7--4--------------4---------4-|
Db|-7--4---4------4------4----4--7--7--4-----------4---------4----|
Ab|-5--2---2------2------2----2--5--5--2------2----------0--------|
Eb|----------4--2-------------------------------------------------|
           P.M.                   Let ring - - - - - >

                                                                                 
Eb|---------------------------------------------------------------|
Bb|---------------------------------------------------------------|
Gb|-------4----------4--------------------------------------------|
Db|----4----------4-----------------------------------------------|
Ab|---------------------------------------------------------------|
Eb|-4--------2----------------------------------------------------|
   Let ring - - - - - >



Rhythm fig. 3a
                                                                                       
Eb|---------------------------------------------------------------|
Bb|---------------------------------------------------------------|
Gb|-/12--12--11-9--7-/9---12--12--11-9--9-------------------------|
Db|-/12--12--11-9--7-/9---12--12--11-9--9-------------------------|
Ab|---------------------------------------------------------------|
Eb|---------------------------------------------------------------|


Rhythm fig. 3b

Eb|---------------------------------------------------------------|
Bb|---------------------------------------------------------------|
Gb|---------------------------------------------------------------|
Db|-/12--12--11-9--7-/9---12--12--11-9--9-------------------------|
Ab|-/10--10--9--7--5-/7---10--10--9--7--7-------------------------|
Eb|---------------------------------------------------------------|



Rhythm fig. 4a
                                                                                     
Eb|---------------------------------0-----------------------------|
Bb|---------------------------------0-----------------------------|
Gb|---------2-----------------------------------------------------|
Db|--0---4-----4--------2--2--------------------------------------|
Ab|---------------0--4-----2--------------------------------------|
Eb|------------------------0--------------------------------------|



Rhythm fig. 4b
                                                                                              
Eb|------------------------------------------------------------0--|
Bb|------------------------------------------------------------0--|
Gb|-------2------------------2------------------2--------------1--|
Db|-0--4-----4-------0----4-----4-------0----4-----4--------2--2--|
Ab|-------------0------------------0------------------0--4-----2--|
Eb|------------------------------------------------------------0--|




Rhythm fig. 4c
                                                                         
Eb|---------------------------------------------------------------|
Bb|---------------------------------------------------------------|
Gb|-------2-----------------2-------------------------------------|
Db|-0--4----4---------0--4----4--------2--------------------------|
Ab|------------0-----------------0--4-----------------------------|
Eb|---------------------------------------------------------------|
   < - - 3X - - >


 
                                                                                 
Rhythm fig. 4d
                                                                                       
Eb|---------------------------------------------------------------|
Bb|---------------------------------------------------------------|
Gb|---------2--------------------2-----2--2-----------------------|
Db|--0---4-----4---------0----4-----4--2--2-----------------------|
Ab|---------------0--------------------0--0-----------------------|
Eb|---------------------------------------------------------------|





Rhythm fig. 5
                                                                                    
Eb|---------------------------------------------------------------|
Bb|---------------------------------------------------------------|
Gb|--4----------2-------2-----2--4------------7----7--6--4--2--4--|
Db|--4----------2-------2-----2--4------------7----7--6--4--2--4--|
Ab|--2---------------4-----4--------------------------------------|
Eb|---------------------------------------------------------------|
            < - - - - - - - - - - - 2X - - - - - - - - - - - >

                                                                                   

Eb|---------------------------------------------------------------|
Bb|---------------------------------------------------------------|
Gb|-2-----2-----2--4------2------2-----2--4--4--4-----------------|
Db|-2-----2-----2--4------2------2-----2--4--4--4-----------------|
Ab|----4-----4----------------4-----4--------2--2-----------------|
Eb|---------------------------------------------------------------|
   < - - - 2X - - - >


 


Rhythm fig. 6a (two guitars arranged for one)
                                                                                   
Eb|--9--------7--------5-------5-------------------------5--------|
Bb|--10-------9--------7-------5--------7-------9-----------------|
Gb|-------------------------------------7-------9--------6--------|
Db|---------------------------------------------------------------|
Ab|---------------------------------------------------------------|
Eb|---------------------------------------------------------------|


                                                                                       
Eb|--9--------7--------5-------5--------5-------7/---10-----9-----|
Bb|--10-------9--------7-------5--------7-------9/---12-----10----|
Gb|---------------------------------------------------------------|
Db|---------------------------------------------------------------|
Ab|---------------------------------------------------------------|
Eb|---------------------------------------------------------------|



Rhythm fig. 6b (clean electric)
                                                                           
Eb|---------------------------------------------------------------|
Bb|-------2---------2----------3---------2----------3----------5--|
Gb|----2---------2----------2---------2----------2----------4-----|
Db|---------------------------------------------------------------|
Ab|-0------------------------------0------------------------------|
Eb|-----------4----------2--------------------2----------4--------|


                                                                          
Eb|--------------0------------------------------------------------|
Bb|-----------2-----------------2---------2----------3---------2--|
Gb|--------2-----------------2---------2----------2---------2-----|
Db|-----2---------------------------------------------------------|
Ab|--0--------------------0------------------------------0--------|
Eb|---------------------------------4----------2------------------|


                                                                           
Eb|---------------------------------------------------------------|
Bb|-------3---------5-----------------------6~---------8~---------|
Gb|----2---------4-------2-----------------------5----------7-----|
Db|----------------------2----2--2--2--2--2---------7----------9--|
Ab|----------------------0----0--0--0--0--0-----------------------|
Eb|-2---------4---------------------------------------------------|
                        P.M. - - - - >


Rhythm fig. 7
                                                                         
Eb|---------------------------------------------------------------|
Bb|---------------------------------------------------------------|
Gb|-9----9-------------9--9----9-------------9--9----9----7----7--|
Db|-9----9----x--x--x--9--9----9----x--x--x--9--9----9----7----7--|
Ab|-7----7----x--x--x--7--7----7----x--x--x--7--7----7----5----5--|
Eb|---------------------------------------------------------------|


                                                                         
Eb|--------------0------------------------------------------------|
Bb|--------------0------------------------------------------------|
Gb|-2------------------9----9-------------9--9----9-------------9-|
Db|-2------2-----------9----9----x--x--x--9--9----9----x--x--x--9-|
Ab|-0------2-----------7----7----x--x--x--7--7----7----x--x--x--7-|
Eb|-----3--0------------------------------------------------------|


                                               
Eb|---------------------------------------------------------------|
Bb|---------------------------------------------------------------|
Gb|--9----9----7----7------2--------------------------------------|
Db|--9----9----7----7------2-------2------------------------------|
Ab|--7----7----5----5------0-------2------------------------------|
Eb|-----------------------------3--0----0--3p-0-------------------|



Rhythm fig. 8

Eb|---------------------------------------------------------------|
Bb|---------------------------------------------------------------|
Gb|--9\-----------------------------------------------------------|
Db|--9\-----------------------------------------------------------|
Ab|--7\-----------------------------------------------------------|
Eb|---------------------------------------------------------------|



Rhythm fig. 9

Eb|---------------------------------------------------------------|
Bb|---------------------------------------------------------------|
Gb|---------------------------------------------------------------|
Db|--2--0---------------2----2------------------------------------|
Ab|--------2--1--0------2----2------------------------------------|
Eb|-----------------3---0----0------------------------------------|



Riff 1 (with slide)

Eb|---------------------------------------------------------------|
Bb|---------------------------------------------------------------|
Gb|---/14\--------------------------------------------------------|
Db|---/14\--------------------------------------------------------|
Ab|---------------------------------------------------------------|
Eb|---------------------------------------------------------------|


Riff 2

Eb|--5~--------7~-------------------------------------------------|
Bb|------6----------8---------------------------------------------|
Gb|---------5----------7------------------------------------------|
Db|---------------------------------------------------------------|
Ab|---------------------------------------------------------------|
Eb|---------------------------------------------------------------|



Riff 3

Eb|---------------------------------------------------------------|
Bb|---------------------------------------------------------------|
Gb|---------------------------------------------------------------|
Db|---------------7~-6--------------------------------------------|
Ab|--/7--7--9--9--------7~----------------------------------------|
Eb|---------------------------------------------------------------|
   < - - - - 2x - - - - >


Riff 4 (with slide)

Eb|--12\----------------------------------------------------------|
Bb|--12\----------------------------------------------------------|
Gb|---------------------------------------------------------------|
Db|---------------------------------------------------------------|
Ab|---------------------------------------------------------------|
Eb|---------------------------------------------------------------|



Solo (partially with slide)

Eb|--/7-(\/)(\/)(\/)\---------------------------------------------|
Bb|--/7-(\/)(\/)(\/)\-------------------------------/21~----------|
Gb|------------------------/7-7-7-7-7\4-2-2/4-------/21~----------|
Db|---------------------------------------------------------------|
Ab|---------------------------------------------------------------|
Eb|---------------------------------------------------------------|



Eb|--10---10---10------------7h-10p-7------7h-10p-7---------------|
Bb|--13b-------13b~----7h-10----------10------------10--7---------|
Gb|--------------------------------------------------------9p-7~--|
Db|---------------------------------------------------------------|
Ab|---------------------------------------------------------------|
Eb|---------------------------------------------------------------|
    <- 4x ->                     <- - 4x - ->



Eb|---------------------------------------------------------------|
Bb|--7\------------------------------10h-12p-10h--12~-------------|
Gb|--7\------------7----------9h-11-------------------------------|
Db|-----------7-9----9~-------------------------------------------|
Ab|-------7-9-----------------------------------------------------|
Eb|---------------------------------------------------------------|
         P.M. - - ->


Eb|----------------------------19---------------------------------|
Bb|--17b-17b-17b-17b-17r-15-15------------------------------------|
Gb|---------------------------------------------------------------|
Db|---------------------------------------------------------------|
Ab|---------------------------------------------------------------|
Eb|---------------------------------------------------------------|
     Hold bend - - ->




I JUST WANNA
Stanley, Vincent

[Rhy. Fig 1]
I got a body built for sin and an apetite for passion
Yeah I can see the road to ruin and I叮 looking for some action

[Rhy. Fig 2]
I got my finger on the trigger and a match to the fuse
I召l make some one and offer that叫 too big to refuse
Tired of tryin to be
What I召l never be
Baby, you could never see that...

[Rhy. Fig 3a & 3b]
I don另 wanna romance 
I don另 wanna dance
[Rhy. Fig 4a]
I just wanna forget you
[Rhy. Fig 3a & 3b]
Time to take my chances 
Find somebody new
[Rhy. Fig 4b]
I just wanna for...I just wanna for
I just wanna forget you

[Rhy. Fig 1]
I叮 gonna set the night on fire shootin like a roman candle
Oh yeah, I叮 burning with desire and I叮 much too hot to handle

[Rhy. Fig 2]
I叮, like a runaway, crazy train, I叮 out of control
If you try to put the brakes on I叮 still gonna roll
Tired of tryin to be
What I召l never be
Baby, you could never see that...

[Rhy. Fig 3a & 3b]
I don另 wanna romance 
I don另 wanna dance
[Rhy. Fig 4a]
I just wanna forget you
[Rhy. Fig 3a & 3b]
Time to take my chances 
Find somebody new
[Rhy. Fig 4c with Riff 1]
I just wanna for...I just wanna for...I just wanna for
I just wanna forget you

[Solo over Rhy. Fig 5]

[Rhy. Fig 6a]
Wake up baby, don另 you sleep
I can另 take this one more week
[Rhy. Fig 6a & 6b with Riff 2]
If I can另 go out to play
I can另 make it one more day

[Rhy. Fig 7 with Riff 3]
I wanna play with dynamite, time is right for heavy breathing
Getting stone cold crazy till the dawn without a reason

[Rhy. Fig 2]
I wanna take me a vacation down a long stretch of track
I召l find a new sensation and I ain另 coming back
Tired of tryin to be
What I召l never be
Baby, you could never see that...

[Rhy. Fig 8 with Riff 4]
I don另 wanna romance
I don另 wanna dance
I don另 wanna romance
Or a second chance
I don另 wanna romance 
I don另 wanna dance
I just wanna for...I just wanna forget

[Rhy. Fig 3a & 3b]
I don另 wanna romance 
I don另 wanna dance
[Rhy. Fig 4a]
I just wanna forget you
[Rhy. Fig 3a & 3b]
Time to take my chances 
Find somebody new
[Rhy. fig 4c with Riff 1]
I just wanna for..I just wanna for
I just wanna forget 

[Riff 3a & 3b]
I don另 wanna romance 
I don另 wanna dance
[Rhy. Fig 4a]
I just wanna forget you
[Rhy. Fig 3a & 3b]
Time to take my chances 
Find somebody new
[Rhy. Fig 4b with Riff 1]
I just wanna for..I just wanna for
I just wanna forget you

[Rhy. Fig 9]

12. Carr Jam 1981 - Eric Carr

Standard tuning 

Rhythm Fig. 1
                                                         
E|----------------------------------------------------|
B|----------------------------------------------------|
G|----------------------------------------------------|
D|---------------------------------------------7~-----|
A|--5------------------7~---5------------------9~-----|
E|------0--0--0-0---------------0--0--0-0-------------|


                                                     
E|----------------------------------------------------|
B|----------------------------------------------------|
G|----------------------------------------------------|
D|----------------------------------------------5~----|
A|--5------------------7~---5-------------------5~----|
E|------0--0--0-0---------------0--0--0-0---5h7-------|


                                                      
E|----------------------------------------------------|
B|----------------------------------------------------|
G|----------------------------------------------------|
D|---------------------------------------------7~-----|
A|--5------------------7~---5------------------9~-----|
E|------0--0--0-0---------------0--0--0-0-------------|


                                                     
E|----------------------------------------------------|
B|-----------------------------------------3----------|
G|-----------------------------------------0--2-------|
D|-----------------------------------------0--2-------|
A|--5------------------7~---5--------------x--0-------|
E|------0--0--0-0---------------0--0-------3----------|




Rhythm Fig. 2
                                                      
E|----------------------------------------------------|
B|----------------------------------------------------|
G|---------------------------------------------4~-----|
D|--4------------------4~---2------------------6~-----|
A|----------------------------------------------------|
E|------2--2--2-2---------------2--2--2-2-------------|


                                                     
E|----------------------------------------------------|
B|----------------------------------------------------|
G|-----------------------------------------4--2-------|
D|--2------------------4~---2--------------4--2-------|
A|-----------------------------------------2--0-------|
E|------2--2--2-2---------------2--2--2-2-------------|




Rhythm Fig. 3
                                                      
E|----------------------------------------------------|
B|----------------------------------------------------|
G|----------------------------------------------------|
D|---------------------------------------------7~-----|
A|--5------------------7~---5------------------9~-----|
E|------0--0--0-0---------------0--0--0-0-------------|


   
                                            
E|----------------------------------------------------|
B|----------------------------------------------------|
G|----------------------------------------------------|
D|----------------------------------------------------|
A|--5------------------7~---5~------------------------|
E|------0--0--0-0-------------------------------------|



Rhythm Fig. 4
                                              
E|----------------------------------------------------|
B|----------------------------------------------------|
G|----------------------------------------------------|
D|----------------------------------------------------|
A|------------/7~-----------------/9~-----------------|
E|-----0--0--0-------------2--2--2--------------------|



Rhythm Fig. 5
                                                  
E|----------------------------------------------------|
B|----------------------------------------------------|
G|----------------------------------------------------|
D|----------------------------------------------------|
A|--0---2---3----0--3--5--7---------------------------|
E|----------------------------0--0--0-0---------------|
   < - 4x - >



Solo

E|--0----------------------------------------------------------------|
B|-----3--0----------------------------------------------------------|
G|-----------2b-r2-p0------------------------------------------------|
D|---------------------2~------2b----0-------------------------------|
A|------------------------------------------2b--r2-------------------|
E|------------------------------------------------------2b^--r2--0---|



E|-------------------------------------------------------------------|
B|--15-15-15-15-15-15-15-15-------------15b--------------------------|
G|--14-14-14-14-14-14-14-14-14b-r14--12------------------------------|
D|-------------------------------------------------------------------|
A|-------------------------------------------------------------------|
E|-------------------------------------------------------------------|



E|---------------------------------------------12------12------------|
B|------------------------------------------------12b-----12b--------|
G|-------------------------------------------------------------------|
D|-------------------------------------------------------------------|
A|--/9~-------7h9--7~----9b-------9p7-9~-----------------------------|
E|-------------------------------------------------------------------|
                                               Let ring - - - >


E|-------------------------------------------12--12--12--------------|
B|--10--------------10----12----10~------12--12--12--12--------------|
G|------11~-----/11----11----11----------14b-------------------------|
D|-------------------------------------------------------------------|
A|-------------------------------------------------------------------|
E|-------------------------------------------------------------------|
                                         < - - 4x - - >


E|--12--------------12------------------------15p12---12-------------|
B|--12h15p12-12-----12h15p12-12----12-15p12--------15----15-12h15p12-|
G|-----------14b-------------14b------------14-----------------------|
D|-------------------------------------------------------------------|
A|-------------------------------------------------------------------|
E|-------------------------------------------------------------------|
  Let ring  - - - - - - - - - >


E|---------12------------------15p12----15p12------------------------|
B|--12--12----15p12-12--12-----------15-------15-15p12----15p12------|
G|--14b-------------14b--------------------------------14--------12--|
D|-------------------------------------------------------------------|
A|-------------------------------------------------------------------|
E|-------------------------------------------------------------------|
    Let ring - - - - - - >


E|-------------------------------------------------------------------|
B|---------------------------------------------------------12**------|
G|--14~------------------------------------------14-16-14b-----------|
D|----------x\-------------------------------/16---------------------|
A|----------x\-------------------------------------------------------|
E|-------------------------------------------------------------------|
           Pick scrape


E|-------------------------------------------------------------------|
B|------12------12**------12-17b~------------------------------------|
G|--14b-----14b-------14b--------------------------------------------|
D|-----------------------------------------2(0)--0-------------------|
A|-------------------------------------------------------------------|
E|-------------------------------------------------------------------|



E|--17b-----14h17p14-------------------------------------------------|
B|-------------------17p14----17p----14h17p14------------------------|
G|-------------------------16-----16----------17p16p14----16----14~--|
D|-----------------------------------------------------16----16------|
A|-------------------------------------------------------------------|
E|-------------------------------------------------------------------|


(One, two, three..)

[Rhy. Fig 1 w/ Solo]
[Rhy. Fig 2]
[Rhy. Fig 3]
[Rhy. Fig 4] (2x)

[Drum solo]

[Rhy. Fig 5]






            
            
Suggest correction
Creating personal tab
Creating personal tab
You can edit any tab online and save it as your Personal.

You can edit, replace or remove any tab part or add personal notes – all changes will be seen only by you.

Personal tabs can be accessed anytime from any device, even offline.
Learn more »
Give kudos to tab author, rate the tab!
1 2 3 4 5
comments
print report bad tab
guest
You may want to rate the tab now too:
select rating
Wanna post a correction for this tab? Suggest correction