Oops, an error
Loading. Please wait.

Rip It Out Bass Tab

version 1
version 1

Whole song

Interactive

by KISS
625 views 1 this week
no commentswrite comment
1 2 3 4 5
3 more votes to show rating
add to favorites
launch autoscroll
font size
0
reset
guitar tuner
Autoscroll
slow
fast
+/-
esc
set tempo
stop
Help us to improve Ultimate-Guitar.com Take our survey!
×
Key:
/    = slide up
\    = slide down
b    = bend (whole step)
b^   = bend (1/2 step)
b^^  = bend (1 1/2 steps)
pb   = pre-bend
r    = release-bend
t    = tap with righthand finger
h    = hammer-on
p    = pull-off
~    = Vibrato
*    = Natural Harmonic
#(#) = Trill
**   = Artificial Harmonic
x    = Dead notes (no pitch)
P.M. = Palm mute (- -> underneath indicates which notes)
(\)  = Dive w\bar
(/)  = Release w\bar
Tp   = Tap w\plectrum




Rhythm Fig. 1
                                                          
Gb|--7h9---7h9---7h9---7h9---7h9---7h9---7h9---7h9-----|
Db|----------------------------------------------------|
Ab|----------------------------------------------------|
Eb|----------------------------------------------------|


                                                     
Gb|----------------------------------------------------|
Db|--7h-9--9--9----9--9--9--7h-9--9--9--9--9--9--9-----|
Ab|----------------------------------------------------|
Eb|----------------------------------------------------|


                                                      
Gb|--7h9---7h9---7h9---7h9---7h9---7h9---7h9---7h9-----|
Db|----------------------------------------------------|
Ab|----------------------------------------------------|
Eb|----------------------------------------------------|


                                                      
Gb|----------------------------------------------------|
Db|--7h-9--9--9----9--9----9--9--7--7------------------|
Ab|------------------------------------10--10--9--9----|
Eb|----------------------------------------------------|



Rhythm Fig. 2a
                                                
Gb|----------------------------------------------------|
Db|----------------------------------------------------|
Ab|--7----7--7--7--7--7--7--5------4-------------------|
Eb|---------------------------------------5------------|


                                                    
Gb|----------------------------------------------------|
Db|----------------------------------------------------|
Ab|---------------------------------------------5------|
Eb|--5h-7--7--7----7--7--7--5h-7--7--7----7--7---------|



Rhythm Fig. 2b
                                                
Gb|----------------------------------------------------|
Db|----------------------------------------------------|
Ab|--7----7--7--7--7--7--7--5------4-------------------|
Eb|---------------------------------------5------------|


                                                    
Gb|----------------------------------------------------|
Db|----------------------------------------------------|
Ab|----------------------------------------------------|
Eb|--5h-7--7--7----7--7--7--5h-7--7--7----7--7--0------|



Rhythm Fig. 2c
                                                
Gb|----------------------------------------------------|
Db|----------------------------------------------------|
Ab|--7----7--7--7--7--7--7--5------4-------------------|
Eb|---------------------------------------5------------|


                                                    
Gb|----------------------------------------------------|
Db|------------------------------------------7---------|
Ab|---------------------------------------9-----9------|
Eb|--5h-7--7--7----7--7--7--5/-7--7--7-----------------|



Rhythm Fig. 3
                                          
Gb|----------------------------------------------------|
Db|----------------------------------------------------|
Ab|----------------------------------------------------|
Eb|--3------3------------5------5----------------------|



Rhythm Fig. 4
                                               
Gb|----------------------------------------------------|
Db|----------------------------------------------------|
Ab|--5--5--5--------3--3-------------------------------|
Eb|--------------------------3----2--3----3------------|


                                               
Gb|----------------------------------------------------|
Db|---------------------------------------5------------|
Ab|--5--5--5--------3--3-------------------------------|
Eb|--------------------------3----2--3-----------------|



Rhythm Fig. 5
                                              
Gb|----------------------------------------------------|
Db|----------------7--------------------7--------------|
Ab|-------------------7--------------------7-----------|
Eb|--5------5-------------5------5---------------------|


                                           
Gb|----------------------------------------------------|
Db|----------------------7h9---------------------------|
Ab|----------------9-----------------------------------|
Eb|--7------7------------------------------------------|



Rhythm Fig. 6
                                          
Gb|----------------------------------------------------|
Db|----------------------------------------------------|
Ab|--5--6--7---7\--------------------------------------|
Eb|----------------------------------------------------|




Rhythm Fig. 7
                                                      
Gb|--7h9---7h9---7h9---7h9---7h9---7h9---7h9---7h9-----|
Db|----------------------------------------------------|
Ab|----------------------------------------------------|
Eb|----------------------------------------------------|


                                                     
Gb|-------------------------------------7-----7--------|
Db|--7h-9--9--9----9--9--9--7h-9--9--9-----9-----9-----|
Ab|----------------------------------------------------|
Eb|----------------------------------------------------|


                                                      
Gb|--7h9---7h9---7h9---7h9---7h9---7h9---7h9---7h9-----|
Db|----------------------------------------------------|
Ab|----------------------------------------------------|
Eb|----------------------------------------------------|


                                                         
Gb|----------------------------------------------------|
Db|--7h9---7h9---7h9---7h9---9--9--7--7----------------|
Ab|--------------------------------------10--10--9--9--|
Eb|----------------------------------------------------|


RIP IT OUT
Ace Frehley, Sue Kelly, Larry Kelly

[Rhy. Fig 1] 

[Rhy. Fig 2a] (3x)
Now I know, you've been cheatin' and lyin' all the time 
I didn't know you were gonna be so unkind 
I've been trying just to find out how we went wrong 
[Rhy. Fig 2b]
But I know that I can't trust you girl anymore 
[Rhy. Fig 3]

[Rhy. Fig 4] (2x) 
Rip it out, take my heart, you wanted it from the start 
You got it now, so goodbye, so rip it out, watch me cry 
[Rhy. Fig 5]

[Rhy. Fig 2a] (3x)
It's so sad, I'm not glad to be with you today 
And it's bad, 'cos I can't stop the pain day by day 
If I knew how to stop you, I don't think I'd try 
[Rhy. Fig 2b]
I think it's better if we just part and don't say goodbye 
[Rhy. Fig 3]

[Rhy. Fig 4] (2x)
Rip it out, take my heart, you wanted it from the start 
You got it now, so goodbye, so rip it out, watch me cry 
[Rhy. Fig 5]
I hope you suffer! 

[Rhy. Fig 6] (4x)
[Rhy. Fig 7]
[Rhy. Fig 2a]
[Rhy. Fig 2c]


[Rhy. Fig 4] (4x)
Rip it out, take my heart, you wanted it from the start 
You got it now, so goodbye, so rip it out, watch me cry
Rip it out, take my heart, you wanted it from the start 
You got it now, so goodbye, so rip it out, watch me cry 

[Rhy. Fig 4]
Rip it out 

(repeat and fade)

Suggest correction
Give kudos to tab author, rate the tab!
1 2 3 4 5
comments
print report bad tab
guest
You may want to rate the tab now too:
select rating
Wanna post a correction for this tab? Suggest correction