Oops, an error
Loading. Please wait.

Rise To It Bass Tab

version 2
version 2

Whole song

by KISS
269 views 1 this week
no commentswrite comment
1 2 3 4 5
please rate
add to favorites
launch autoscroll
font size
0
reset
guitar tuner
Autoscroll
slow
fast
+/-
esc
set tempo
stop
Help us to improve Ultimate-Guitar.com Take our survey!
×
Author
RISE TO IT (from the KISS CD "HOT IN THE SHADE")
--------------------
                                                                                 
Standard tuning


Key:
/    = slide up
\    = slide down
b    = bend (whole step)
b^   = bend (1/2 step)
b^^  = bend (1 1/2 steps)
pb   = pre-bend
r    = release-bend
t    = tap with righthand finger
h    = hammer-on
p    = pull-off
~    = Vibrato
*    = Natural Harmonic
#(#) = Trill
**   = Artificial Harmonic
x    = Dead notes (no pitch)
P.M. = Palm mute (- -> underneath indicates which notes)
(\)  = Dive w\bar
(/)  = Release w\bar
Tp   = Tap w\plectrum





Rhythm Fig. 1
                                             
G|---------------------------------------------------------|
D|------12\------------------------------------------------|
A|--10-----------------------------------------------------|
E|---------------------------------------------------------|




Rhythm Fig. 2a
                                                      
G|---------------------------------------------------------|
D|---------------------------------------------------------|
A|---------------------------------------------------------|
E|--3--3--3--3--3--3--3--3--3--3--3--3--3--0--1--2---------|



Rhythm Fig. 2b
                                                      
G|---------------------------------------------------------|
D|---------------------------------------------------------|
A|---------------------------------------------------------|
E|--3--3--3--3--3--3--3--3--3--3--3--3--3--3--3--3---------|



Rhythm Fig. 2c
                                                     
G|---------------------------------------------------------|
D|-----------------------5----5----------------------------|
A|--------------------5------------------------------------|
E|--3--3--3--3--3--3-------------0--0--1--0--1--2----------|



Rhythm Fig. 2d
                                                      
G|---------------------------------------------------------|
D|---------------------------------------------------------|
A|---------------------------------------------------------|
E|--3--3--3--3--3--3--3--3--3--3--3--0--1--2--3--4---------|



Rhythm Fig. 2e
                                                      
G|---------------------------------------------------------|
D|---------------------------------------------------------|
A|---------------------------------------------------------|
E|--3--3--3--3--3--3--3--3--3--3--3--3--3--0--3--0---------|



Rhythm Fig. 2f
                                                      
G|---------------------------------------------------------|
D|---------------------------------------------------------|
A|---------------------------------------------------------|
E|--3--3--3--3--3--3--3--3--3--3--3--3--3--0--1--3---------|



Rhythm Fig. 2g
                                                      
G|---------------------------------------------------------|
D|-----------------------------------------5--3------------|
A|-----------------------------------------------5---------|
E|--3--3--3--3--3--3--3--3--3--3--3--3--3------------------|



Rhythm Fig. 2h
                                                              
G|---------------------------------------------------------|
D|---------------------------------------------------------|
A|---------------------------------------------------------|
E|--3--3--3--3--3--3--3--3/-15--15--15--15--15--15--15--15-|



Rhythm Fig. 3
                                                      
G|---------------------------------------------------------|
D|---------------------------------------------------------|
A|---------------------------------------------------------|
E|--5--5--5--5--5--5--5--5--5--5--5--5--5--0--3--0---------|


                                                      
G|---------------------------------------------------------|
D|---------------------------------------------------------|
A|---------------------------------------------------------|
E|--5--5--5--5--5--5--5--5--5--5--5--5--5--5/-17\----------|



Rhythm Fig. 4a
                                                
G|---------------------------------------------------------|
D|---------------------------------------------------------|
A|----3--3--3--5----5------3--3--3--5----5-----------------|
E|---------------------------------------------------------|


                                                   
G|---------------------------------------------------------|
D|---------------------------------------------------------|
A|----3--3--3--5----5--5--5--5--5--5--5/-17\---------------|
E|---------------------------------------------------------|




Rhythm Fig. 4b
                                                    
G|---------------------------------------------------------|
D|---------------------------------------------------------|
A|----3--3--3--5----5/-17\---3--3--3--5----5/-17\----------|
E|---------------------------------------------------------|


                                                   
G|---------------------------------------------------------|
D|---------------------------------------------------------|
A|----3--3--3--5----5--5--5--5--5--5--5/-17\---------------|
E|---------------------------------------------------------|




Rhythm Fig. 5
                                                   
G|---------------------------------------------------------|
D|---------------------------------------------------------|
A|--3------3--3--3--3----3--3--3--3------------------------|
E|-----------------------------------0--0--1--2------------|



Rhythm Fig. 6
                                                      
G|---------------------------------------------------------|
D|---------------------------------------------------------|
A|--5--5--5--5--5--5--5--5---------------------------------|
E|--------------------------1--1--1--1--1--0--1--0---------|



Rhythm Fig. 7
                                                              
G|---------------------------------------------------------|
D|---------------------------10h12---12----10-12-12--10-12-|
A|--5--5--5--5--5--5/-12\----------------------------------|
E|---------------------------------------------------------|


                                                      
G|---------------------------------------------------------|
D|---------------------------------------------------------|
A|--5--5--5--5--5--5/-12\----------------------------------|
E|--------------------------1--1--1--1--1--1--1--1---------|




Rhythm Fig. 8
                                                     
G|---------------------------------------------------------|
D|---------------------------------------------------------|
A|-----------------0--1--3----3--3--3--3--3--0--1----------|
E|--1--1--1--1--1------------------------------------------|


                                                    
G|---------------------------------------------------------|
D|---------------------------------------------------------|
A|----1--1--1--1-----1-------------------------------------|
E|----------------1-----3----3--3--3--3--3--3--3-----------|


                                                     
G|---------------------------------------------------------|
D|--------------------3----------------------2-------------|
A|-----------------3----------------------3-----3/---------|
E|--1--1--1--1--1--------0----0--0--0--0-------------------|


                                                      
G|---------------------------------------------------------|
D|---------------------------------------------------------|
A|--6--6--6--6--6--6--6--6--8--8--8--8--8--8--8--8---------|
E|---------------------------------------------------------|


                                       
G|---------------------------------------------------------|
D|---------------------------------------------------------|
A|--8\-----------------------------------------------------|
E|---------------------------------------------------------|






RISE TO IT
Paul Stanley, Bob Halligan

[Intro: Guitar only]

[Rhy. Fig 1]
[Rhy. Fig 2a]
[Rhy. Fig 2b]
[Rhy. Fig 2e]
[Rhy. Fig 2c]

[Rhy. Fig 2b] (3x)
All that style all going to waste 
All that beauty
[Rhy. Fig 2d]
But you never show your face 
[Rhy. Fig 3]
I'm gonna make my way to you, knock down your door and walk on through 
[Rhy. Fig 4a]
I'm impatient, times a wastin', girl, if you give me an occasion 

[Rhy. Fig 2e] (2x)
I'm gonna rise to it, you know I really can do it 
[Rhy. Fig 5]
I'm gonna rise, I'm gonna rise, I'm gonna rise to it 
[Rhy. Fig 2e]
[Rhy. Fig 6]
When you're lying next to me, baby, I can guarantee
[Rhy. Fig 2e]
I'm gonna rise to it 

[Rhy. Fig 2e] (2x)

[Rhy. Fig 2b then Rhy. Fig 2e]
I'll give you fever, I'll give you chills 
[Rhy. Fig 2b then Rhy. Fig 2d]
Make you a believer, ooh, I'm gonna break your will 
[Rhy. Fig 3]
A little danger, a little fun, we're gonna take 'em one by one 
[Rhy. Fig 4b]
Walk the wire of desire, and if you dare to take it higher 

[Rhy. Fig 2a]  (2x)
I'm gonna rise to it, you know I really can do it 
[Rhy. Fig 5]
I'm gonna rise, I'm gonna rise
[Rhy. Fig 2e]
I'm gonna rise to it 
[Rhy. Fig 6]
When you're lying next to me, baby, I can guarantee
[Rhy. Fig 2f]
I'm gonna rise to it

[Rhy. Fig 7]
[Rhy. Fig 2e] (3x)
[Rhy. Fig 2b]

[Rhy. Fig 8]
Get up, lights, camera, action, it's getting time for the show 
Tonight you're the main attraction 
And if you want a lover who can play the other role, I'm gonna, I'm gonna 

[Rhy. Fig 2a]  (2x)
I'm gonna rise to it, you know I really can do it 
[Rhy. Fig 5]
I'm gonna rise, I'm gonna rise
[Rhy. Fig 2e]
I'm gonna rise to it 
[Rhy. Fig 6]
When you're lying next to me, baby, I can guarantee
[Rhy. Fig 2g]
I'm gonna rise to it 

[Rhy. Fig 2e]
I'm gonna rise to it, you know I really can do it 
[Rhy. Fig 2a]
I'm gonna rise, I'm gonna rise, I'm gonna rise to it 
[Rhy. Fig 2h]
I'm gonna rise to it

[Rhy. Fig 2e] (repeat and fade)
Suggest correction
Give kudos to tab author, rate the tab!
1 2 3 4 5
comments
print report bad tab
guest
You may want to rate the tab now too:
select rating
Please do not post tabs as comments. Select "correction" instead!