Oops, an error
Loading. Please wait.

Rock And Roll All Night Bass Tab

version 1
version 1

Whole song

Interactive

by KISS
62,582 views 84 this week
4 commentsread comments
1 2 3 4 5
accurate
x 14
add to favorites
launch autoscroll
font size
0
reset
guitar tuner
Autoscroll
slow
fast
+/-
esc
set tempo
stop
Help us to improve Ultimate-Guitar.com Take our survey!
×
Author
ROCK AND ROLL ALL NIGHT
BY KISS
THIS TAB IS 100% CORRECT

G----------------------------------------------------------------|
D--------------2-2-----------------------------------------------|
A------------------5-4-2-----------------------------------------| 4X
E---5-5-4-2-0----------------------------------------------------|

G----------------------------------------------------------------|
D--------------2-2-----------------------------------------------|
A---5-5-4-2-0------5-4-2-----------------------------------------| 1X
E----------------------------------------------------------------|

G----------------------------------------------------------------|
D--------------2-2-----------------------------------------------|
A------------------5-4-2-----------------------------------------| 2X
E---5-5-4-2-0----------------------------------------------------|

G----------------------------------------------------------------|
D--------------2-2-----------------------------------------------|
A---5-5-4-2-0------5-4-2-----------------------------------------| 1X
E----------------------------------------------------------------|

G----------------------------------------------------------------|
D---3-3-2---------------5-5--------------------------------------|
A---------5-3-----2-3-5------------------------------------------| 1X
E-------------3-3------------------------------------------------|

G----------------------------------------------------------------|
D----------------------------------------------------------------|
A---0------------------------------------------------------------| 1X
E----------------------------------------------------------------|

G----------------------------------------------------------------|
D--------------2-2-----------------------------------------------|
A---5-5-4-2-0------5-4-2-----------------------------------------| 1X
E----------------------------------------------------------------|

G----------------------------------------------------------------|
D----------------------------------------------------------------|
A---0------------------------------------------------------------| 1X
E----------------------------------------------------------------|

G----------------------------------------------------------------|
D--------------2-2-----------------------------------------------|
A---5-5-4-2-0------5-4-2-----------------------------------------| 1X
E----------------------------------------------------------------|

G----------------------------------------------------------------|
D----------------------------------------------------------------|
A---0------------------------------------------------------------| 1X
E----------------------------------------------------------------|

REST FOR A FEW MEASURES

G----------------------------------------------------------------|
D--------------2-2-----------------------------------------------|
A------------------5-4-2-----------------------------------------| 2X
E---5-5-4-2-0----------------------------------------------------|

G----------------------------------------------------------------|
D--------------2-2-----------------------------------------------|
A---5-5-4-2-0------5-4-2-----------------------------------------| 1X
E----------------------------------------------------------------|

G----------------------------------------------------------------|
D--------------2-2-----------------------------------------------|
A------------------5-4-2-----------------------------------------| 2X
E---5-5-4-2-0----------------------------------------------------|

G----------------------------------------------------------------|
D--------------2-2-----------------------------------------------|
A---5-5-4-2-0------5-4-2-----------------------------------------| 1X
E----------------------------------------------------------------|

G----------------------------------------------------------------|
D---3-3-2---------------5-5--------------------------------------|
A---------5-3-----2-3-5------------------------------------------| 1X
E-------------3-3------------------------------------------------|

G----------------------------------------------------------------|
D----------------------------------------------------------------|
A---0------------------------------------------------------------| 1X
E----------------------------------------------------------------|

G----------------------------------------------------------------|
D--------------2-2-----------------------------------------------|
A---5-5-4-2-0------5-4-2-----------------------------------------| 1X
E----------------------------------------------------------------|

G----------------------------------------------------------------|
D----------------------------------------------------------------|
A---0------------------------------------------------------------| 1X
E----------------------------------------------------------------|

G----------------------------------------------------------------|
D--------------2-2-----------------------------------------------|
A---5-5-4-2-0------5-4-2-----------------------------------------| 1X
E----------------------------------------------------------------|

G----------------------------------------------------------------|
D----------------------------------------------------------------|
A---0------------------------------------------------------------| 1X
E----------------------------------------------------------------|

keep playing same thing over till song fades out
Suggest correction new What's this?
You can suggest a correction to this tab. Community and Mods will review your correction and vote to approve or reject it.
comments
print report bad tab
4 comments total. Showing first comments.
0 reply
Titanman7476 14 wrote on December 1 2009, 01:05 pm

first of all this tab is without an intro (unfortunate) second of all, this tab is in the wrong key. it should be tuned a half step down (Eb Ab Db Gb) so this tab is absolutely not 100% its probably about a 25% tops

0 reply
tall_geek 25 wrote on January 2 2013, 03:32 pm

Titan nailed, tune down to Eb, There is a fade on the studio version, cant really pull that off live. So to end the guitar and bass copy each other with my ending tab. Pre Chorus sounds wrong...way to complicated for Gene.

Pre-Chorus - You keep on shouting...You keep......

Gb-----------------------------------------------------
Db------------------------5-5-5-5-5-5\-----------------
Ab-----------8-8-8-8-8-8-------------------------------
Eb-----------------------------------------------------

Ending
Gb-----7--5---5----------------------------------------
Db----------7---7---5-----5----------------------------
Ab---------------------7-----7--5--1/4 NOTE REST-------
Eb-----------------------------------------------5-----

0 reply
vin4791 13 wrote on May 6 2014, 07:25 pm

Yeah, you're way off...Gene played several different live versions over the years, none of which are in standard tuning. If you want the accurate studio album version, check out "Rock And Roll All Nite" (correct album spelling) version #4 posted by iq01....it is 100% correct to the original album version.

guest
You may want to rate the tab now too:
select rating
Please do not post tabs as comments. Select "correction" instead!