Oops, an error
Loading. Please wait.

Rock And Roll All Night Bass Tab

version 2
version 2

Whole song

Interactive

by KISS
9,387 views 9 this week
no commentswrite comment
1 2 3 4 5
please rate
add to favorites
launch autoscroll
font size
0
reset
guitar tuner
Autoscroll
slow
fast
+/-
esc
set tempo
stop
Help us to improve Ultimate-Guitar.com Take our survey!
×
Author
Artist:	Kiss
Title:	Rock N Roll All Night

G|------------------------------------------------|
D|------------------------------------------------|
A|---5-5---5---5----------------------------------|
E|-------5---5---5--------------------------------|

G|------------------------------------------------|
D|--------------2-2-------------------------------|
A|------------------5-4-2-------------------------|
E|---5-5-4-2-0------------------------------------|

G|------------------------------------------------|
D|--------------2-2-------------------------------|
A|------------------5-4-2-------------------------|
E|---5-5-4-2-0------------------------------------|

G|------------------------------------------------|
D|--------------2-2-------------------------------|
A|------------------5-4-2-------------------------|
E|---5-5-4-2-0------------------------------------|

G|------------------------------------------------|
D|--------------2-2-------------------------------|
A|------------------5-4-2-------------------------|
E|---5-5-4-2-0------------------------------------|

G|------------------------------------------------|
D|--------------2-2-------------------------------|
A|------------------5-4-2-------------------------|
E|---5-5-4-2-0------------------------------------|

G|------------------------------------------------|
D|------------------------------------------------|
A|---5-5---5---5----------------------------------|
E|-------5---5---5--------------------------------|

G|------------------------------------------------|
D|--------------2-2-------------------------------|
A|------------------5-4-2-------------------------|
E|---5-5-4-2-0------------------------------------|

G|------------------------------------------------|
D|--------------2-2-------------------------------|
A|------------------5-4-2-------------------------|
E|---5-5-4-2-0------------------------------------|

G|------------------------------------------------|
D|--------------2-2-------------------------------|
A|------------------5-4-2-------------------------|
E|---5-5-4-2-0------------------------------------|

G|------------------------------------------------|
D|------------------------------------------------|
A|---5-5---5---5----------------------------------|
E|-------5---5---5--------------------------------|

G|------------------------------------------------|
D|------------------------------------------------|
A|---3-------5------------------------------------|
E|------------------------------------------------|

G|------------------------------------------------|
D|------------------------------------------------|
A|---0--------------------------------------------|
E|------------------------------------------------|

G|------------------------------------------------|
D|--------------2-2-------------------------------|
A|------------------5-4-2-------------------------|
E|---5-5-4-2-0------------------------------------|

G|------------------------------------------------|
D|------------------------------------------------|
A|---0--------------------------------------------|
E|------------------------------------------------|

G|------------------------------------------------|
D|--------------2-2-------------------------------|
A|------------------5-4-2-------------------------|
E|---5-5-4-2-0------------------------------------|

G|------------------------------------------------|
D|------------------------------------------------|
A|---0--------------------------------------------|
E|------------------------------------------------|
Suggest correction
Give kudos to tab author, rate the tab!
1 2 3 4 5
comments
print report bad tab
guest
You may want to rate the tab now too:
select rating
Wanna post a correction for this tab? Suggest correction