Oops, an error
Loading. Please wait.

Rock And Roll All Nite Tab

version 1
version 1

Live

Whole song

Interactive

by KISS
4,919 views 1 this week
3 commentsread comments
1 2 3 4 5
worth learning
x 3
add to favorites
launch autoscroll
font size
0
reset
how to read this tab
guitar tuner
Autoscroll
slow
fast
+/-
esc
set tempo
stop
Help us to improve Ultimate-Guitar.com Take our survey!
×
Author
Difficulty
intermediate
Rock and Roll All Nite Live, Alive 1 - KISS
-------------------------------------------------------------------------------
Tabbed by:aceroks
Email:jdrnascarfan@aol.com

Tuning: down 1/2 step

(Riff 1)

e|--3---3-------3---3-----------------------------------------------------------------|
B|--3---3---3---3---3---3-------------------------------------------------------------|
G|--0---0---2---0---0---2---2---------------------------------------------------------|
D|--0---0---0---0---0---0---2---------------------------------------------------------|
A|--x---x-------x---x-------0---------------------------------------------------------|
E|--3---3-------3---3-----------------------------------------------------------------|

(Riff 2)
e|------------------------------------------------------------------------------------|
B|------------------------------------------------------------------------------------|
G|--------------------2---------------------------------------------------------------|
D|-----9-9-11-11-9----2---------------------------------------------------------------|
A|-----7-7-7--7--7----0---------------------------------------------------------------|
E|--0---------------------------------------------------------------------------------|

(verse)

e|----------------------------------------------------------------------|
B|----------------------------------------------------------------------|
G|--------------------2----------------------2-----------------------2--|
D|-----9-9-11-11-9----2-------9-9-11-11-9----2--------9-9-11-11-9----2--|
A|-----7-7-7--7--7----0-------7-7-7--7--7----0--------7-7-7--7--7----0--|
E|--0----------------------0-----------------------0--------------------|

e|--------------------------------|
B|--------------------------------|
G|--------------------------------|
D|--7-7-9--9--7\----9-9-11-11-9/--|
A|--5-5-5--5--5\----7-7-7--7--7/--|
E|---------------0----------------|

(Pre-Chorus)
e|--1-1-1-1-------------3-3-3-3-3-3-3-3-3/--|
B|--1-1-1-1-------------3-3-3-3-3-3-3-3-3/--|
G|--2-2-2-2-------------4-4-4-4-4-4-4-4-4/--|
D|--3-3-3-3-------------5-5-5-5-5-5-5-5-5/--|
A|--3-3-3-3-------------5-5-5-5-5-5-5-5-5/--|
E|--1-1-1-1------0------3-3-3-3-3-3-3-3-3/--|

(Chorus)
e|------------------------------------|
B|------------------------------------|
G|--2---------------------------------|
D|--2------7-7-9-9-7----9-9-11-11-11--|
A|--0------5-5-5-5-5----7-7-7--7--7---|
E|------------------------------------|

(Solo)
e|--------5--------5------5---------5-------5--------5--------5--------5----------------|
B|-----5--------5-------5--------5--------5--------5--------5--------5------------------|
G|--7b--------7b------7b------ 7b------7b-------7b-------7b--------7b-------------------|
D|--------------------------------------------------------------------------------------|
A|--------------------------------------------------------------------------------------|
E|--------------------------------------------------------------------------------------|

e|--------5--------5-------------------------------------------|
B|-----5--------5----------------------------------------------|
G|--7b-------7b----------5---7br---5-------5-5-5-5---7b~~~~/\--|
D|-----------------------5---7br---5---7---5-5-5-5---7b~~~~/\--|
A|-------------------------------------7-----------------------|
E|-------------------------------------------------------------|


e|----------17--------17----------17---------17-----------17-------|
B|------17--------------------17----------------------17-----------|
G|--19b---------19b-------19b----------19b--------19b---------19b--|
D|-----------------------------------------------------------------|
A|-----------------------------------------------------------------|
E|-----------------------------------------------------------------|

e|--------------------------------------------------------------|
B|--20-20p17------20-20p17----20------20p17--------20p17--------|
G|------------19-----------19----19---------19p17--------19p17--|
D|--------------------------------------------------------------|
A|--------------------------------------------------------------|
E|--------------------------------------------------------------|

e|------------------------------20b-20br-20-17----17-17-----17-----------|
B|--20p17--------20p17-------------------------20-------20b-----20br///--|
G|--------19p17---------19p17--------------------------------------------|
D|-----------------------------------------------------------------------|
A|-----------------------------------------------------------------------|
E|-----------------------------------------------------------------------|


e|--------------------------------------------------|
B|--13-13-13-13-x-15-15-15-15-15-15-15-15-15//////--|
G|--14-14-14-14-x-16-16-16-16-16-16-16-16-16//////--|
D|--------------------------------------------------|
A|--------------------------------------------------|
E|--------------------------------------------------|

| /  slide up
| \  slide down
| h  hammer-on
| p  pull-off
| ~  vibrato
| +  harmonic
| x  Mute note

-----ORDER------

-Riff 1
-Riff 2 x2
-verse
-Riff 1
-Pre-Chorus
-Chorus
REPEAT PER RECORDING
-solo

ANY IDEAS FOR THE SOLO? IM JUST A BEGINNER, THIS IS MY TRANSCRIPTION. EMAIL SUGGESTIONS 
JDRNASCARFAN@AOL.COM.  Thanks
Suggest correction
Give kudos to tab author, rate the tab!
1 2 3 4 5
comments
print report bad tab
3 comments total.
0 reply
MPA91589 31 wrote on September 14 2006, 07:39 pm

no

0 reply
spoing24 10 wrote on August 25 2008, 03:27 pm

horrible

0 reply
nbridges12 10 wrote on March 7 2010, 03:25 pm

Wow looks like you did this in less than 5 minutes

guest
You may want to rate the tab now too:
select rating
Please do not post tabs as comments. Select "correction" instead!