Oops, an error
Loading. Please wait.

Rock And Roll All Nite Tab

version 1
version 1

Solo

Whole song

Interactive

by KISS
32,025 views 24 this week
no commentswrite comment
1 2 3 4 5
excellent!
x 2
add to favorites
launch autoscroll
font size
0
reset
how to read this tab
guitar tuner
Tab Pro tools
  • play this tab
  • loop segment
  • change instrument
  • show fretboard
  • metronome
Autoscroll
slow
fast
+/-
esc
set tempo
stop
Contributor
-------------------------------------------------------------------------------
                      Rock And Roll All Nite - Kiss
-------------------------------------------------------------------------------
Tabbed by: lfsilvaa
Email: luisfersilvaa

Tuning:Half Stepped Down

Alive!

e|-----5---5------5---5------5---5-----5-----5--8p5------------------|
B|-5-5---5----5-5---5----5-5---5---5-5----5--------5-8p5-------------|
g|-7b----7b---7b----7b---7b----7---7b-----7b------------5-7p5--------|
D|-----------------------------------------------------------7-------|
A|-------------------------------------------------------------------|
E|-------------------------------------------------------------------|

e|-------------------------------------------------------|
B|-7b-7b-5-7-5-7b------------------7h8-7h8-7-8-8-7-------|
G|-7b-7b-5-7-5-7b-7p5--7b----------7---7---7-7-7-7-------|
D|-------------------7-------------7h9-7h9-7-9-9-7-------|
A|-------------------------------------------------------|
E|----------------------------15\------------------------|

e|------17----17-----17---17-----17----17----------------------------------|
B|----17-----------17----------17-----------17h20p17---17h20p17---17h20p17-|
G|-19b----19b---19b----19b---19b----19b---19---------19---------19---------|
D|-------------------------------------------------------------------------|
A|-------------------------------------------------------------------------|
E|-------------------------------------------------------------------------|

e|------20b-20-------------20---------------------------------|
B|---17--------17h20p17-------------7h8-7h8-7-9-9-7-----------|
G|-19-------------------19----19b---7---7---7-7-7-7-----------|
D|----------------------------------7h9-7h9-7-8-8-7-----------|
A|------------------------------------------------------------|
E|------------------------------------------------------------|

e|-------------------------19----17--------------------------------------|
B|-13---15-13--15---17---------------15----------------------------------|
G|-14---15-14--16---17--/19---/17----15h16-------------------------------|
D|----15----------17-----------------------------------------------------|
A|-----------------------------------------------------------------------|
E|-----------------------------------------------------------------------|

Ending

e|------------------------------|
B|-7b-5-7-5------------2--------|
G|-7b-5-7-5-7-5-7-5----2--------|
D|----------7-5-7-5----2--------|
A|------------------7--0--------|
E|------------------------------|

Unplugged

Ace Frehley

e|-----5---5------5---5------5---5-----5-----5--8-5------------------|
B|-5-5---5----5-5---5----5-5---5---5-5----5--------5-8-5-------------|
g|-7b----7b---7b----7b---7b----7---7b-----7b------------5-7-5--------|
D|-----------------------------------------------------------7-------|
A|-------------------------------------------------------------------|
E|-------------------------------------------------------------------|

e|-------------------------------------------------------|
B|-7b-7b-5-7-5-7b------------------7h8-7h8-7-8-8-7-------|
G|-7b-7b-5-7-5-7b-7p5--7b----------7---7---7-7-7-7-------|
D|-------------------7-------------7h9-7h9-7-9-9-7-------|
A|-------------------------------------------------------|
E|----------------------------15\------------------------|

Bruce Kullick

e|----5-5---5-5---5-5---5-5---5-5---5----8-8-5------------|
B|----5-5---5-5---5-5---5-5---5-5---5---------------------|
G|--5b----5b----5b----5b----5b----5b--5b-------7-5--------|
D|--------------------------------------------------------|
A|--------------------------------------------------------|
E|--------------------------------------------------------|

e|--------------------------------------------------------------|
B|---5-7-7b-7---------20---20---20---20---------7h8-7h8-7-8-8-7-|
G|---5-7-7b-7-5----19b---19b--19b--19b--19rp17--7---7---7-7-7-7-|
D|-7------------7-------------------------------7h9-7h9-7-9-9-7-|
A|--------------------------------------------------------------|
E|--------------------------------------------------------------|

e|----------------------------19----17-17s19-|
B|-13----15-13--15--17-----------------------|
G|----14----------16--16---/19---/17---17s19-|
D|-------------------------------------------|
A|-------------------------------------------|
E|-------------------------------------------|

Ending

e|------------------------------|
B|-7b-5-7-5------------2--------|
G|-7b-5-7-5-7-5-7-5----2--------|
D|----------7-5-7-5----2--------|
A|------------------7--0--------|
E|------------------------------|

| /  slide up
| \  slide down
| h  hammer-on
| p  pull-off
| ~  vibrato
| +  harmonic
| x  Mute note
===============================================================================

comments
We did not receive enough feedback on this tab! Please rate:
print report bad tab
1 2 3 4 5
I want to post or [tab]
guest
You may want to rate the tab now too:
select rating
Please do not post tabs as comments. Select "correction" instead!