Oops, an error
Loading. Please wait.

Rock And Roll All Nite Bass

version 3
version 3

Interactive

57,003 views 99 this week
11 commentsread comments
1 2 3 4 5
x 37
add to favorites
launch autoscroll
font size
0
reset
guitar tuner
backing track
0:00
0:00
×
Best way to learn
"Rock And Roll All Nite"
Autoscroll
slow
fast
+/-
esc
set tempo
stop
Rock and Roll all nite by Kiss
Tabbed in Standard Tuning


[Intro]

G|4/6-6---6-6--|
D|------6-----6|
A|-------------|
E|-------------|

G|--------------------|        |--------------------|        |4/6-6---6-6--|
D|--------------------|        |--------------------|        |------6-----6|
A|-----------6-6-4-3--|        |4-4-3-1----6-6-4-3--|        |-------------|
E|4-4-2-1-0----------6|(x4)    |--------4----------6|(x1)    |-------------|

G|--------------------|        |--------------------|        |4/6-6---6-6--|
D|--------------------|        |--------------------|        |------6-----6|
A|-----------6-6-4-3--|        |4-4-3-1----6-6-4-3--|        |-------------|
E|4-4-2-1-0----------6|(x2)    |--------4----------6|(x1)    |-------------|

G|--------------------------------|
D|-----------------4-4-4-4-4-4-4-4|
A|7-7-7-7-7-7-7-7-----------------|
E|--------------------------------|

G|----------------------------------------------|
D|----------------------------------------------|
A|--4-4-3-1----6-6-4-3----4-4-3-1---6-6-4-3-----|
E|4---------4----------6----------4---------6--4|

G|4/6-6---6-6--|
D|------6-----6|
A|-------------|
E|-------------|

G|--------------------|     |--------------------|     |4/6-6---6-6--|
D|--------------------|     |--------------------|     |------6-----6|
A|-----------6-6-4-3--|     |4-4-3-1----6-6-4-3--|     |-------------|
E|4-4-2-1-0----------6|(x2) |--------4----------6|(x1) |-------------|

G|--------------------|     |--------------------|     |4/6-6---6-6--|
D|--------------------|     |--------------------|     |------6-----6|
A|-----------6-6-4-3--|     |4-4-3-1----6-6-4-3--|     |-------------|
E|4-4-2-1-0----------6|(x2) |--------4----------6|(x1) |-------------|

G|--------------------------------|
D|-----------------4-4-4-4-4-4-4-4|
A|7-7-7-7-7-7-7-7-----------------|
E|--------------------------------|

G|----------------------------------------------|
D|----------------------------------------------|
A|--4-4-3-1----6-6-4-3----4-4-3-1---6-6-4-3-----|
E|4---------4----------6----------4---------6--4|

G|4/6-6---6-6--|
D|------6-----6|
A|-------------|
E|-------------|

G|--------------------|     |--------------------|     |4/6-6---6-6--|
D|--------------------|     |--------------------|     |------6-----6|
A|-----------6-6-4-3--|     |4-4-3-1----6-6-4-3--|     |-------------|
E|4-4-2-1-0----------6|(x2) |--------4----------6|(x1) |-------------|

G|--------------------|     |--------------------|     |4/6-6---6-6--|
D|--------------------|     |--------------------|     |------6-----6|
A|-----------6-6-4-3--|     |4-4-3-1----6-6-4-3--|     |-------------|
E|4-4-2-1-0----------6|(x2) |--------4----------6|(x1) |-------------|

G|--------------------------------|
D|-----------------4-4-4-4-4-4-4-4|
A|7-7-7-7-7-7-7-7-----------------|
E|--------------------------------|

G|----------------------------------------------|
D|----------------------------------------------|
A|--4-4-3-1----6-6-4-3----4-4-3-1---6-6-4-3-----|
E|4---------4----------6----------4---------6--4|

G|4/6-6---6-6--|
D|------6-----6|
A|-------------|
E|-------------|

G|--------------------------------|
D|-----------------4-4-4-4-4-4-4-4|
A|7-7-7-7-7-7-7-7-----------------|
E|--------------------------------|


[Outro]

G|6-4---4--------------|
D|----6---6-4---4------|
A|------------6---6-4--|
E|--------------------4|



************************************

| /  Slide up
| x  Dead note

************************************
Suggest correction
comments
print report bad tab
11 comments total. Showing first comments.
0 reply
DoTheDew up urs 110 Jun 11, 2004 08:00 PM

this is very good man...exellent..
thank the Lord for tabbers like you

0 reply
rockn_alex 10 Jul 14, 2004 08:00 PM

Good Work Buddy

+1 reply
basketcase673 10 Oct 09, 2005 12:56 PM

Sweeeeeeeeeet.

guest
You may want to rate the tab now too:
select rating
Wanna post a correction for this tab? Suggest correction