Oops, an error
Loading. Please wait.

Rock And Roll All Nite Bass Tab

version 4
version 4

Whole song

Interactive

by KISS
6,882 views 1 this week
1 commentread comment
1 2 3 4 5
1 last vote to show rating
add to favorites
launch autoscroll
font size
0
reset
guitar tuner
Autoscroll
slow
fast
+/-
esc
set tempo
stop
Help us to improve Ultimate-Guitar.com Take our survey!
×
Author
drop tuning 1/2 step

intro
                                                                      x2
F#--------------I---------------------------------------------------------|I
C#--------------I-O-------------------------------------------------------|O-I
G#--------------I-O----------------------7---0--5--0--4--2--2--0----------|O-I
D#----2--3--5---I------0--3--0--2--0--0-----------------------------------|I


verse

F#--------------------------------------------------------|
C#--------------------------------------------------------|
G#-------------------------7----0--5--0--4--2--0----------|
D#--------0--3--0--2--0--0-------------------------5------|

F#----------------------------------------------------------------------------|
C#----------------------------------------------------------------------------|
G#--------------------7---0--5--0--4--2--4--5---5--4---2--0--0--7--7--5--4--2-|
D#--0--3--0--2--0--0----------------------------------------------------------|

F#--------------------------------------------------------|
C#--------------------------------------------------------|
G#----------------------------7--0--5--0--4--2--0---------|
D#-2--3--5--0--3--0--2--0--0-----------------------5------|

F#---------------------------------------------------------------------------|
C#---------------------------------------------------------------------------|
G#-------------------7--0--5--0--4--2--4--5--5--4--2--0--0--7--7-5-5--4-4--2-|
D#-0--3--0--2--0--0----------------------------------------------------------|


play this on the 2nd time around instead of the line before the pre-chorus ^

F#--------------------------------------------------------------------------|
C#--------------------------------------------------------------------------|
G#--------------------7--0--5--0--4--2--4--5--2--0--0--7---7--0--5--0--4--2-|
D#-0--3--0--2--0--0---------------------------------------------------------|

F#------------------------------------------------------------|
C#------------------------------------------------------------|
G#------------------------------------------------------------|
D#-1--1--1--1--1--1--3---3--3--3--3--3--3--3--3\--------------|


Pre-Chorus

F#-----------------------------------------------------------|
C#-----------------------------------------------------------|
G#-----------------------------------------------------------|
D#--0--0--1--1--1--1--1--1--1--3----3--3--3--3--3--3--3--3\--|


Chorus
                                                         x2
F#-I---------------------------------------------------------I----- r--------|
C#-I-O------7----------------------------------------------O-I--7---e--------|
G#-I-O------0------5--0--4--0--2--0--0--7--0--5--0--4--2---O-I--0---s--------|
D#-I---------------------------------------------------------I----- t--------|

                   jump to here after the long rest the first time around
D#--2--3--5----
                   go back to verse and repeat


jump to here after the rest on the 2nd repeat

F#-I----------------------------------------------------------I--|
C#-I-O---7--------------------------------------------------O-I--|
G#-I-O---0----5--0--4--0--2--0--0--7--0--5--0--4--2--2--0---O-I--|
D#-I----------------------------------------------------------I--|

keep repeating this and fade
Suggest correction
Give kudos to tab author, rate the tab!
1 2 3 4 5
comments
print report bad tab
1 comment total.
0 reply
vin4791 10 May 06, 2014 07:36 PM

Gene played a lot of different live versions over the years, but this is the only tab on here that is truly accurate to the original album.

guest
You may want to rate the tab now too:
select rating
Wanna post a correction for this tab? Suggest correction