Oops, an error
Loading. Please wait.

Rock And Roll All Nite Tab

version 4
version 4

Whole song

Interactive

by KISS
116,362 views 165 this week
5 commentsread comments
1 2 3 4 5
excellent!
x 20
add to favorites
launch autoscroll
font size
0
reset
how to read this tab
guitar tuner
Autoscroll
slow
fast
+/-
esc
set tempo
stop
Help us to improve Ultimate-Guitar.com Take our survey!
×
Author
Tuning
D# G# C# F# A# D#
-------------------------------------------------------------------------------
                         Rock And Roll All Nite - Kiss
-------------------------------------------------------------------------------
Tabbed by:LF Silva
The original song doesnt have a solo, heres the Alive! solo and the Unplugged solo

Tuning:Eb

[Intro]

   Guitar 1 & 2
Eb|----------------------------------------------------|
Bb|------7h8-----7h8-----7----8----8p-7----------------|
Gb|------7-------7-------7----7----7-------------------|
Db|------7h9-----7h9-----7----9----9p-7----------------|
Ab|----------------------------------------------------|
Eb|----------------------------------------------------|
   
   Guitar 1                                                       
Eb|----------------------------------------------------|X2
Bb|--2--------------9----9--10p-9--10--9---------------|
Gb|--2--------------9----9--11p-9--9---9---------------|
Db|--2--------------9----9--9------11--9---------------|
Ab|--0------------------------------------0------------|
Eb|----------------------------------------------------|
  |                                                    |
  |Guitar 2                                            |
Eb|----------------------------------------------------|
Bb|----------------------9-----------------------------|
Gb|--14-14-14------------9-----------------------------|
Db|--14-14-14------------9-----------------------------|
Ab|--12-12-12------------7-----------------------------|
Eb|----------------------------------------------------|


[Verse] X2
   Guitar 1
Eb|----------------------------------------------------|X2
Bb|--2--------------9----9--10p-9--10--9---------------|
Gb|--2--------------9----9--11p-9--9---9---------------|
Db|--2--------------9----9--9------11--9---------------|
Ab|--0------------------------------------0------------|
Eb|----------------------------------------------------|
  |                                                    |
  |Guitar 2                                            |
Eb|----------------------------------------------------|
Bb|----------------------9-----------------------------|
Gb|--14-14-14------------9-----------------------------|
Db|--14-14-14------------9-----------------------------|
Ab|--12-12-12------------7-----------------------------|
Eb|----------------------------------------------------|
   
   Guitar 1
Eb|----------------------------------------------------|
Bb|--7----7--8p-7--8--7----9----9--10p-9--10--9--------|
Gb|--7----7--9p-7--7--7----9----9--11p-9--9---9--------|
Db|--7----7--7-----9--7----9----9--9------11--9--------|
Ab|----------------------------------------------------|
Eb|---------------------------------------------(12\)--|
  |                                                    |
  |Guitar 2                                            |
Eb|----------------------------------------------------|
Bb|--7--------------9----------9--9--------------------|
Gb|--7--------------9----------9--9--------------------|
Db|--7--------------9----------9--9--------------------|
Ab|--5--------------7----------7--7--------------------|
Eb|----------------------------------------------------|

   Guitar 1 & 2
Eb|----------------------------------------------------|
Bb|------7h8-----7h8-----7----8----8p-7----------------|
Gb|------7-------7-------7----7----7-------------------|
Db|------7h9-----7h9-----7----9----9p-7----------------|
Ab|----------------------------------------------------|
Eb|----------------------------------------------------|


[Pre Chorus]
   
   Guitar 1
Eb|----------------------------------------------------|
Bb|----------------------------------------------------|
Gb|--10----10------------------------------------------|
Db|--10----10--12-----10----12--12----12--14------12---|
Ab|--8-----8---8---8--8-----8---10----10--10--10--10---|
Eb|----------------------------------------------------|
  |                                                    |
  |Guitar 2                                            |
Eb|----------------------------------------------------|
Bb|----------------------------------------------------|
Gb|----------------------------------------------------|
Db|--10----10--12-----10----12--12----12--14------12---|
Ab|--8-----8---8---8--8-----8---10----10--10--10--10---|
Eb|----------------------------------------------------|
  
   Guitar 1
Eb|----------------------------------------------------|
Bb|--------------12\-----------------------------------|
Gb|--------------12\-----------------------------------|
Db|--12--14------12\-----------------------------------|
Ab|--10--10--10--10\-----------------------------------|
Eb|----------------------------------------------------|
  |                                                    |
  |Guitar 2                                            |
Eb|----------------------------------------------------|
Bb|----------------------------------------------------|
Gb|----------------------------------------------------|
Db|--12--14------12\-----------------------------------|
Ab|--10--10--10--10\-----------------------------------|
Eb|----------------------------------------------------|


[Chorus] X2
   
   Guitar 1
Eb|----------------------------------------------------|
Bb|----------------------------------------------------|
Gb|--2-------------------------------------------------|
Db|--2-------------------------------------------------|
Ab|--0-------------------------------------------------|
Eb|----------------------------------------------------|
  |                                                    |
  |Guitar 2                                            |
Eb|----------------------------------------------------|
Bb|----------------------------------------------------|
Gb|--9-------------------------------------------------|
Db|--7-------------------------------------------------|
Ab|--0-------------------------------------------------|
Eb|----------------------------------------------------|
   
   Guitar 1
Eb|----------------------------------------------------|
Bb|--7-------------7--7----9--------------9--9---------|
Gb|--7-------------7--7----9--------------9--9------9--|
Db|--7----7--9-----7--7----9----9--11-----9--9--11--9--|
Ab|--5----5--5--5--5--5----7----7--7---7--7--7--7---7--|
  |                                                    |
  |Guitar 2                                            |     
Eb|----------------------------------------------------|
Bb|----------------------------------------------------|
Gb|----------------------------------------------------|
Db|--7----7--9-----7--7----9----9--11-----9--9--11--9--|
Ab|--5----5--5--5--5--5----7----7--7---7--7--7--7---7--|
Eb|----------------------------------------------------|

[Intro]
[Verse]

[Chorus]
[Intro]

Solo Alive!

Eb|-----5---5------5---5------5---5-----5-----5--8p5------------------|
Bb|-5-5---5----5-5---5----5-5---5---5-5----5--------5-8p5-------------|
Gb|-7b----7b---7b----7b---7b----7---7b-----7b------------5-7p5--------|
Db|-----------------------------------------------------------7-------|
Ab|-------------------------------------------------------------------|
Eb|-------------------------------------------------------------------|

Eb|-------------------------------------------------------|
Bb|-7b-7b-5-7-5-7b------------------7h8-7h8-7-8-8-7-------|
Gb|-7b-7b-5-7-5-7b-7p5--7b----------7---7---7-7-7-7-------|
Db|-------------------7-------------7h9-7h9-7-9-9-7-------|
Ab|-------------------------------------------------------|
Eb|----------------------------15\------------------------|

Eb|------17----17-----17---17-----17----17----------------------------------|
Bb|----17-----------17----------17-----------17h20p17---17h20p17---17h20p17-|
Gb|-19b----19b---19b----19b---19b----19b---19---------19---------19---------|
Db|-------------------------------------------------------------------------|
Ab|-------------------------------------------------------------------------|
Eb|-------------------------------------------------------------------------|

Eb|------20b-20-------------20---------------------------------|
Bb|---17--------17h20p17-------------7h8-7h8-7-9-9-7-----------|
Gb|-19-------------------19----19b---7---7---7-7-7-7-----------|
Db|----------------------------------7h9-7h9-7-8-8-7-----------|
Ab|------------------------------------------------------------|
Eb|------------------------------------------------------------|

Eb|-------------------------19----17--------------------------------------|
Bb|-13---15-13--15---17---------------15----------------------------------|
Gb|-14---15-14--16---17--/19---/17----15h16-------------------------------|
Db|----15----------17-----------------------------------------------------|
Ab|-----------------------------------------------------------------------|
Eb|-----------------------------------------------------------------------|

Rhythm for Solo you play the verse

MTV Unplugged

Ace Frehley

Eb|-----5---5------5---5------5---5-----5-----5--8-5------------------|
Bb|-5-5---5----5-5---5----5-5---5---5-5----5--------5-8-5-------------|
Gb|-7b----7b---7b----7b---7b----7---7b-----7b------------5-7-5--------|
Db|-----------------------------------------------------------7-------|
Ab|-------------------------------------------------------------------|
Eb|-------------------------------------------------------------------|

Eb|-------------------------------------------------------|
Bb|-7b-7b-5-7-5-7b------------------7h8-7h8-7-8-8-7-------|
Gb|-7b-7b-5-7-5-7b-7p5--7b----------7---7---7-7-7-7-------|
Db|-------------------7-------------7h9-7h9-7-9-9-7-------|
Ab|-------------------------------------------------------|
Eb|----------------------------15\------------------------|

Bruce Kullick

Eb|----5-5---5-5---5-5---5-5---5-5---5----8-8-5------------|
Bb|----5-5---5-5---5-5---5-5---5-5---5----8-8-5------------|
Gb|--5b----5b----5b----5b----5b----5b--5b-------7-5--------|
Db|---------------------------------------------7-5--------|
Ab|--------------------------------------------------------|
Eb|--------------------------------------------------------|

Eb|--------------------------------------------------------------|
Bb|---5-7-7b-7---------20---20---20---20---------7h8-7h8-7-8-8-7-|
Gb|---5-7-7b-7-5----19b---19b--19b--19b--19rp17--7---7---7-7-7-7-|
Db|-7------------7-5-----------------------------7h9-7h9-7-9-9-7-|
Ab|--------------------------------------------------------------|
Eb|--------------------------------------------------------------|

Eb|----------------------------19----17-17s19-|
Bb|-13----15-13--15--17-----------------------|
Gb|----14----------16--16---/19---/17---17s19-|
Db|-------------------------------------------|
Ab|-------------------------------------------|
Eb|-------------------------------------------|


[Chorus]


Eb|------------------------------|
Bb|-7b-5-7-5------------2--------|
Gb|-7b-5-7-5-7-5-7-5----2--------|
Db|----------7-5-7-5----2--------|
Ab|------------------7--0--------|
Eb|------------------------------|


*****************************************************

| /  slide up
| \  slide down
| h  hammer-on
| p  pull-off
| ~  vibrato
| +  harmonic
| x  Mute note

*****************************************************
Suggest correction
What's this?
You can suggest a correction to this tab. Community and Mods will review your correction and vote to approve or reject it.
comments
print report bad tab
5 comments total. Showing first comments.
+1 reply
geomotions 47 wrote on September 5 2009, 01:32 pm

man, that was a great tab, thanks for postin it

0 reply
lfsilvaa 165 wrote on September 29 2009, 10:18 pm

thanks its my first tab

0 reply
Oldschoolguy 66 wrote on January 14 2010, 03:31 pm

Dude I've been looking for this tab all over and they all sucked. You however did flawless. Thank you very much. 5 stars.

guest
You may want to rate the tab now too:
select rating
Please do not post tabs as comments. Select "correction" instead!