Oops, an error
Loading. Please wait.

Say Yeah Tab

version 1
version 1

Intro

Whole song

by KISS
6,129 views 18 this week
1 commentread comment
1 2 3 4 5
accurate
x 4
add to favorites
launch autoscroll
font size
0
reset
how to read this tab
guitar tuner
Tab Pro tools
  • play this tab
  • loop segment
  • change instrument
  • show fretboard
  • metronome
Autoscroll
slow
fast
+/-
esc
set tempo
stop
Contributor
Difficulty
Tuning
novice
D# G# C# F# A# D#
-------------------------------------------------------------------------------
                             SAY YEAH - Kiss
-------------------------------------------------------------------------------
Tabbed by: ALIEN
Email: maniek256@gmail.com

Tuning: 1/2 step down


  |Intro
  |
Eb|------------------------------2--------------------------------2-----|
Bb|--------0------0------0----3----3--------0------0------0----3----3---|
Gb|----------0------0---------2------2--------0------0---------2------2-|
Db|-------------2--------------------------------2----------------------|
Ab|------2------3------2------------------2------3------2---------------|
Eb|------0-------------3------------------0-------------3---------------|
  |
Eb|---------------------------------------------------------------2-----|
Bb|-----------------------------------------------------------------3---|
Gb|--2-2--------------------------------------------------------------2-|
Db|--2-2-2--------------------------------------------------------------|
Ab|--0-0-2--------------------------------------------------------------|
Eb|------0--------------------------------------------------------------|

           Let ring ------------------------------------------>



  |Riff
  |
Eb|------------------------------2--------------------------------2-----|
Bb|--------0------0------0----3----3--------0------0------0----3----3---|
Gb|----------0------0---------2------2--------0------0---------2------2-|
Db|-------------2--------------------------------2----------------------|
Ab|------2------3------2------------------2------3------2---------------|
Eb|------0-------------3------------------0-------------3---------------|
  |
Eb|------------------------------2--------------------------------2-----|
Bb|--------0------0------0----3----3--------0------0------0----3----3---|
Gb|----------0------0---------2------2--------0------0---------2------2-|
Db|-------------2--------------------------------2----------------------|
Ab|------2------3------2------------------2------3------2---------------|
Eb|------0-------------3------------------0-------------3---------------|



  |Verse
  |
Eb|---------------------------------------------------------------------|
Bb|---------------------------------------------------------------------|
Gb|---------------------------------------------------------------------|
Db|--2-----------------5---7---7---7/9---9-----------7/9-9---9--9-------|
Ab|--2-----------------3---5---5---5/7---7-----------5/7-7---7--7-------|
Eb|--0----0-0-0-0-0-0-----------------------0-0-0-0---------------------|
  |
  |       P.M.------>                       P.M.-->
Eb|---------------------------------------------------------------------|
Bb|---------------------------------------------------------------------|
Gb|--9----------------12--14--14--14/16--16------------------9--9-------|
Db|--9----------------10--12--12--12/14--14------------------9--9-------|
Ab|--7-------------------------------------------------------7--7-------|
Eb|-------0-0-0-0-0-0-----------------------0-0-0-0-0-0-0-0-------------|

          P.M.------>                       P.M.---------->

Eb|---------------------------------------------------------------------|
Bb|---------------------------------------------------------------------|
Gb|---------------------------------------------------------------------|
Db|--2-----------------5---7---7---7/9---9-----------9-9\7/9\7/9--------|
Ab|--2-----------------3---5---5---5/7---7-----------7-7\5/7\5/7--------|
Eb|--0----0-0-0-0-0-0-----------------------0-0-0-0---------------------|
  |
  |       P.M.------>                       P.M.-->
Eb|---------------------------------------------------------------------|
Bb|---------------------------------------------------------------------|
Gb|--9----------------12--14--14--14/16--16--------------------9-9------|
Db|--9----------------10--12--12--12/14--14--------------------9-9------|
Ab|--7---------------------------------------------------------7-7------|
Eb|-------0-0-0-0-0-0-----------------------0-0-0-0-0-0-0-0-0-----------|

          P.M.------>                       P.M.------------>

Eb|---------------------------------------------------------------------|
Bb|---------------------------------------------------------------------|
Gb|---------------------------------------------------------------------|
Db|--2-----------------5---7---7---7/9---9-----------7/9-9---9--9-------|
Ab|--2-----------------3---5---5---5/7---7-----------5/7-7---7--7-------|
Eb|--0----0-0-0-0-0-0-----------------------0-0-0-0---------------------|
  |
  |       P.M.------>                       P.M.-->
Eb|---------------------------------------------------------------------|
Bb|---------------------------------------------------------------------|
Gb|--9----------------12--14--14--14/16--16------------------9--9-------|
Db|--9----------------10--12--12--12/14--14------------------9--9-------|
Ab|--7-------------------------------------------------------7--7-------|
Eb|-------0-0-0-0-0-0-----------------------0-0-0-0-0-0-0-0-------------|

          P.M.------>                       P.M.---------->

Eb|---------------------------------------------------------------------|
Bb|---------------------------------------------------------------------|
Gb|---------------------------------------------------------------------|
Db|--2-----------------5---7---7---7/9---9------------------------------|
Ab|--2-----------------3---5---5---5/7---7------------------------------|
Eb|--0----0-0-0-0-0-0-----------------------0-0-0-0--3/15\3-------------|
  |
  |       P.M.------>                       P.M.-->
Eb|---------------------------------------------------------------------|
Bb|---------------------------------------------------------------------|
Gb|--9----------------12--14--14--14/16--16-----------------------------|
Db|--9----------------10--12--12--12/14--14-----------------------------|
Ab|--7------------------------------------------------------------------|
Eb|-------0-0-0-0-0-0-----------------------0-0-0-0--3/15\3-------------|

          P.M.------>                       P.M.-->



  |Bridge
  |
  |1st
  |
Eb|---------------------------------------------------------------------|
Bb|----------------3-3--------------------------------------------------|
Gb|---------2------2-2--2-----------------2--2---4----------------------|
Db|--5------2------0-0--2----5-5-5--------2--2---4----------------------|
Ab|--5------0-----------0----5-5-5--------0--0---2----------------------|
Eb|--3-----------------------3-3-3--------------------------------------|
  |
Eb|--3-----------------------3-3-3--------------------------------------|
Bb|--3-----------------------3-3-3--------------------------------------|
Gb|--0------2-----------2----0-0-0--------2--2---4----------------------|
Db|--0------2-----------2----0-0-0--------2--2---4----------------------|
Ab|--x------0-----------0----x-x-x--------0--0---2----------------------|
Eb|--3-----------------------3-3-3--------------------------------------|


  |2nd
  |
Eb|-----------------------2--3-3-2--------------------------------------|
Bb|------------------3----3--3-3-3--------------------3---3-3-3-3-------|
Gb|--5---------------2----2--2-2-2-----5--------------2---2-2-2-2-------|
Db|--5-----------5---0----0--0-0-0-----5----------5---0---0-0-0-0-------|
Ab|--3-----------5---------------------3----------5---------------------|
Eb|--------------3--------------------------------3---------------------|
  |
Eb|--3-----------3--------2--3-3-2-----3----------3---------------------|
Bb|--3-----------3---3----3--3-3-3-----3----------3---3---3-3-3-3-------|
Gb|--0-----------0---2----2--2-2-2-----0----------0---2---2-2-2-2-------|
Db|--x-----------0---0----0--0-0-0-----x----------0---0---0-0-0-0-------|
Ab|--3-----------x---------------------3----------x---------------------|
Eb|--------------3--------------------------------3---------------------|

     <------------2x------------->

Riff

Verse

Bridge (both parts)

Riff




  |Interlude
  |
Eb|---------------------------------------------------------------------|
Bb|---------------------------------------------------------------------|
Gb|---10----------12----------10----------------------------------------|
Db|---10----------12----------10----------------------------------------|
Ab|----8----------10-----------8----------------------------------------|
Eb|---------------------------------------------------------------------|
  |
Eb|---------------------------------------------------------------------|
Bb|---------------------------------------------------------------------|
Gb|---------------------------------------------------------------------|
Db|----3--------5--5--------3--3----------------------------------------|
Ab|----3--------5--5--------3--3----------------------------------------|
Eb|----1--------3--3--------1--1----------------------------------------|

       m           m           m*

*as many as needed, just listen to the song and feel this

Eb|---------------------------------------------------------------------|
Bb|---------------------------------------------------------------------|
Gb|---------------------------------------------------------------------|
Db|----7---7-9--7-7-9--7-7-9--7-5-5---7---7-9--7-7-9-7-7-7-9-7-7-7-9----|
Ab|----5---5-5--5-5-5--5-5-5--5-3-3---5---5-5--5-5-5-5-5-5-5-5-5-5-5----|
Eb|---------------------------------------------------------------------|
  |
Eb|---------------------------------------------------------------------|
Bb|---------------------------------------------------------------------|
Gb|---------------------------------------------------------------------|
Db|----7---7-9--7-7-9--7-7-9--7-5-5---7---7-9--7-7-9-7-7-7-9-7-7-7-9----|
Ab|----5---5-5--5-5-5--5-5-5--5-3-3---5---5-5--5-5-5-5-5-5-5-5-5-5-5----|
Eb|---------------------------------------------------------------------|

       <------------2x------------>

Verse w/solo

Bridge (1st part)




  |Clean part
  |
Eb|----------------------2----------0h2-------------------------2-------|
Bb|---------1---------0--3--------3-----3---------1----------0--3-------|
Gb|-----------0----------2------2---------2---------0-----------2-------|
Db|------2---------------0----0----------------2----------------0-------|
Ab|----3-----------2-------------------------3------------2-------------|
Eb|--------------3--------------------------------------3---------------|
  |
Eb|----0---------3-------2-------------------0----------3-------2-------|
Bb|----1---------3-------3-------------------1----------3-------3-------|
Gb|----0---------0-------2-------------------0----------0-------2-------|
Db|----2---------0-------0-------------------2----------0-------0-------|
Ab|----3---------2---------------------------3----------2---------------|
Eb|--------------3--------------------------------------3---------------|

       <----------------2x--------------->

Riff

Bridge (2nd part)

Riff 3,5x (i think you know what i mean ;))


  |Ending
  |
Eb|---------------------------------------------------------------------|
Bb|---------------------------------------------------------------------|
Gb|-----------5--5----7~------------------------------------------------|
Db|---2-------5--5----7~------------------------------------------------|
Ab|---2-------3--3----5~------------------------------------------------|
Eb|---0-----------------------------------------------------------------|
  |
Eb|-----------3--3------------------------------------------------------|
Bb|-----------3--3----3~------------------------------------------------|
Gb|-----------0--0----2~------------------------------------------------|
Db|---2-------x--x----0-------------------------------------------------|
Ab|---2-------3--3------------------------------------------------------|
Eb|---0-----------------------------------------------------------------|


************************************

Key:
/    = slide up
\    = slide down
h    = hammer-on
p    = pull-off
~    = Vibrato
x    = Dead notes (no pitch)
P.M. = Palm mute (- -> underneath indicates which notes)

Comments: First guitar is playing by Tommy, second by Paul. 
          Unfortunetly there is no solo in my tabs. Sorry for this. I'm still figuring it out.
          I'm sorry for some mistakes. I'm not perfect.

************************************
comments
print report bad tab
1 comment total.
0 reply
CinderellaFan14 wrote on April 1 2012, 01:12 am

Awesome job! 5 Stars!

I want to post or [tab]
guest
You may want to rate the tab now too:
select rating
Please do not post tabs as comments. Select "correction" instead!