Oops, an error
Loading. Please wait.

Shandi Tab

version 1
version 1

Whole song

Interactive

by KISS
8,822 views 9 this week
1 commentread comment
1 2 3 4 5
accurate
x 4
add to favorites
launch autoscroll
font size
0
reset
how to read this tab
guitar tuner
Tab Pro tools
  • play this tab
  • loop segment
  • change instrument
  • show fretboard
  • metronome
×
Best way to learn
"Shandi"
Autoscroll
slow
fast
+/-
esc
set tempo
stop
Contributor
Difficulty
intermediate
Transcribed by Taylor Rigelman, bandofbrothers3@msn.com

Standard tuning

Comments: Kind of a top-of-the-pops type song this. The guitar work though,
which might be all Paul, is good and a little out of the ordinary for KISS.
Especially the second two bars of the main riff. Very percussive and kind
of funky. Nice fills too. There's an acoustic (probably a 12-string) through
most of the song. I've only notated the chords in most places. Check the
recording for the rhythm pattern.


Key:
/    = slide up
\    = slide down
b    = bend (whole step)
b^   = bend (1/2 step)
b^^  = bend (1 1/2 steps)
pb   = pre-bend
r    = release-bend
t    = tap with righthand finger
h    = hammer-on
p    = pull-off
~    = Vibrato
*    = Natural Harmonic
#(#) = Trill
**   = Artificial Harmonic
x    = Dead notes (no pitch)
P.M. = Palm mute (- -> underneath indicates which notes)
(\)  = Dive w\bar
(/)  = Release w\bar
Tp   = Tap w\plectrum





Rhythm Fig. 1

E|--5---5--x-4----4--4-4----5---5--x-4----4--4-4-----------|
B|--5---5--x-5----5--5-5----5---5--x-5----5--5-5-----------|
G|--4---4--x-4----4--4-4----4---4--x-4----4--4-4-----------|
D|---------------------------------------------------------|
A|---------------------------------------------------------|
E|---------------------------------------------------------|



E|----------------4---4----------------------4---4---------|
B|----------x-----4h5-5--5p4--------4--x-----4h5-5--5p4----|
G|-------4--x-----4h6-6--6p4--------4--x-----4h6-6--6p4----|
D|--4--x------4h6--------------4--x------4h6---------------|
A|---------------------------------------------------------|
E|---------------------------------------------------------|



Rhythm Fig. 2 (let ring)

E|------0-------------------0------------------------------|
B|--9-------9-----------7-------7--------------------------|
G|---------------------------------------------------------|
D|---------------------------------------------------------|
A|---------------------------------------------------------|
E|---------------------------------------------------------|



E|------0--------------------0--------0--------------------|
B|--9-------9--------------------------------0-------------|
G|-------------------------0--------0----------------------|
D|---------------------------------------------------------|
A|----------------------3--------2--------0----------------|
E|---------------------------------------------------------|



End 1

E|-----------2-----------2---------------------------------|
B|-----------2-----------2---------------------------------|
G|-------2---------------4---------------------------------|
D|-----4-----------------4---------------------------------|
A|-----------------------2---------------------------------|
E|--2------------------------------------------------------|



End 2

E|-----------2-------2--------------2-------2--------------|
B|-----------2----2-----2-----------2----------2-----------|
G|-------2----------------------4--------4-----------------|
D|-----4---------------------------------------------------|
A|--------------------------2------------------------------|
E|--2------------------------------------------------------|



E|-----------2-------2------2------------------------------|
B|-----------2----2-----2---2------------------------------|
G|-------2------------------4------------------------------|
D|-----4--------------------4------------------------------|
A|--------------------------2------------------------------|
E|--2------------------------------------------------------|




Rhythm Fig. 3

E|---------------------------------------------------------|
B|-----------2---------------------2-----------------------|
G|----------------2---------------------4------------------|
D|---------------------------x-4---------------------------|
A|-----x-4----------------2--------------------------------|
E|--2------------------------------------------------------|



E|---------------------------------------------------------|
B|-----------4---------------------2-----------------------|
G|----------------4-------------------2--------------------|
D|-----x-6-------------------x-2---------------------------|
A|------------------------0--------------------------------|
E|--4--------------------------------------4---------------|



E|---------------------------------------------------------|
B|-----------2---------------------2-----------------------|
G|----------------2---------------------4------------------|
D|---------------------------x-4---------------------------|
A|-----x-4----------------2--------------------------------|
E|--2------------------------------------------------------|



E|--4---4--x-4h5---5--5-5---4---4--x-4-----4--4-4----------|
B|--5---5--x-5-----5--5-5---5---5--x-5-----5--5-5----------|
G|--4---4--x-4-----4--4-4---4---4--x-4-----4--4-4----------|
D|---------------------------------------------------------|
A|---------------------------------------------------------|
E|---------------------------------------------------------|



E|---------------------------------------------------------|
B|-----------2---------------------2-----------------------|
G|----------------2---------------------4------------------|
D|---------------------------x-4---------------------------|
A|-----x-4----------------2--------------------------------|
E|--2------------------------------------------------------|



E|---------------------------------------------------------|
B|-----------2---------------------------------------------|
G|----------------2-------4--4--4--4--4--4--4--4-----------|
D|-----x-2----------------4--4--4--4--4--4--4--4-----------|
A|--0---------------------2--2--2--2--2--2--2--2-----------|
E|---------------------------------------------------------|
                          cresc.







Rhythm Fig. 4 (12-string acoustic)

E|--5---5--x-4----4--4-4----5---5--x-4----4--4-4-----------|
B|--5---5--x-5----5--5-5----5---5--x-5----5--5-5-----------|
G|--4---4--x-4----4--4-4----4---4--x-4----4--4-4-----------|
D|---------------------------------------------------------|
A|---------------------------------------------------------|
E|---------------------------------------------------------|



E|--2--2-2----4---4-4--4-4----2--2-2----4---4-4--4-4-------|
B|--2--2-2----5---5-5--5-5----2--2-2----5---5-5--5-5-------|
G|--4--4-4----6---6-6--6-6----4--4-4----6---6-6--6-6-------|
D|--4--4-4----6---6-6--6-6----4--4-4----6---6-6--6-6-------|
A|--2--2-2----4---4-4--4-4----2--2-2----4---4-4--4-4-------|
E|---------------------------------------------------------|



Rhythm Fig. 5 (12-string acoustic)

E|--2--------2---------2------------------0----------------|
B|--2--------2---------2--------3----3----0----------------|
G|--2--------4---------2--------0----0----2----------------|
D|--4--------4---------4--------x----x----2----------------|
A|--4--------2---------4--------3----2----0----------------|
E|--2------------------2-----------------------------------|



E|--2--------2-----|----2--------2--------------------------|
B|--2--------2-----|----2--------2--------------------------|
G|--2--------4-----|----2--------4--------------------------|
D|--4--------4-----|----4--------4--------------------------|
A|--4--------2-----|----4--------2--------------------------|
E|--2--------------|----2-----------------------------------|
                    2nd time only



Rhythm Fig. 6 (12-string acoustic)

E|--2-------2-------4-------5-------2--------2-------------|
B|--2-------2-------4-------5-------2--------2-------------|
G|--2-------4-------4-------6-------2--------4-------------|
D|--4-------4-------6-------7-------4--------4-------------|
A|--4-------2-------6-------7-------4--------2-------------|
E|--2---------------4-------5-------2----------------------|



E|--4---4--x-4h5---5--5-5----4---4--x-4h5---5--5-5---------|
B|--5---5--x-5-----5--5-5----5---5--x-5-----5--5-5---------|
G|--4---4--x-4-----4--4-4----4---4--x-4-----4--4-4---------|
D|---------------------------------------------------------|
A|---------------------------------------------------------|
E|---------------------------------------------------------|



E|--2--------2---------0--------2--------------------------|
B|--2--------2---------2--------2--------------------------|
G|--2--------4---------2--------4--------------------------|
D|--4--------4---------2--------4--------------------------|
A|--4--------2---------0--------2--------------------------|
E|--2------------------------------------------------------|



Riff 1

E|--5\9~---------------------------------------------------|
B|--5\9~---------------------------------------------------|
G|---------------------------------------------------------|
D|---------------------------------------------------------|
A|---------------------------------------------------------|
E|---------------------------------------------------------|



Riff 2

E|--9--------9----------7-------7----------9--------9------|
B|------10------------------7------------------10----------|
G|---------------------------------------------------------|
D|---------------------------------------------------------|
A|---------------------------------------------------------|
E|---------------------------------------------------------|




Intro solo

E|-------14-----14\12~------------9-7--7/9~----------------|
B|-12/14----14--14\12~--------7\9------7/9~----------------|
G|---------------------------------------------------------|
D|---------------------------------------------------------|
A|---------------------------------------------------------|
E|---------------------------------------------------------|



E|-----7---7/9-9------7~-----------------------------------|
B|-5/7---7-7/9---9\7--7~-----------------------------------|
G|---------------------------------------------------------|
D|---------------------------------------------------------|
A|---------------------------------------------------------|
E|---------------------------------------------------------|



E|-------14------14\12~----5/7-7---7/9---9\7---------------|
B|-12\14----14---14\12~----5/7---7-7/9-9-9\7---------------|
G|---------------------------------------------------------|
D|---------------------------------------------------------|
A|---------------------------------------------------------|
E|---------------------------------------------------------|



E|--9h^12p^9-----------------------------------------------|
B|------------12-9--9h^12p^9-------------------------------|

G|---------------------------11--9h^11p^9------------------|
D|----------------------------------------11~--------------|
A|---------------------------------------------------------|
E|---------------------------------------------------------|




E|-5/7-7---7/9---9-9---7-----------------------------------|
B|-5/7---7-7/9---9-9---7-----------------------------------|
G|---------------------------------------------------------|
D|---------------------------------------------------------|
A|---------------------------------------------------------|
E|---------------------------------------------------------|



Outro solo

E|--------14----14\12---12\--------------------------------|
B|--12/14----14-14\12---12\--------------------------------|
G|---------------------------------------------------------|
D|---------------------------------------------------------|
A|---------------------------------------------------------|
E|---------------------------------------------------------|



E|---------7-----7/9-9-9-9\7----------------14-14\12-------|
B|--5/7~------7--7/9-9-9-9\7----------12/14----14\12-------|
G|---------------------------------------------------------|
D|---------------------------------------------------------|
A|---------------------------------------------------------|
E|---------------------------------------------------------|



E|--------14-14\12----9h12p9-------------------------------|
B|--12/14----14\12-----------12-9-9h12p9-------------------|
G|----------------------------------------11-9h11p9--------|
D|--------------------------------------------------11-----|
A|---------------------------------------------------------|
E|---------------------------------------------------------|



E|--5/7---7-7/9--9-9-9-9-9\7-------------------------------|
B|--5/7-7---7/9--9-9-9-9-9\7-------------------------------|
G|---------------------------------------------------------|
D|---------------------------------------------------------|
A|---------------------------------------------------------|
E|---------------------------------------------------------|
comments
print report bad tab
1 comment total.
+2 reply
doublev wrote on December 23 2008, 08:11 pm

Piece of crap tab

I want to post or [tab]
guest
You may want to rate the tab now too:
select rating
Please do not post tabs as comments. Select "correction" instead!