Oops, an error
Loading. Please wait.

She Tab

version 1
version 1

Whole song

Interactive

19,782 views 21 this week
3 commentsread comments
1 2 3 4 5
x 9
add to favorites
launch autoscroll
font size
0
reset
how to read this tab
guitar tuner
×
Best way to learn
"She"
Autoscroll
slow
fast
+/-
esc
set tempo
stop
Date: Sun, 14 Apr 1996 17:32:48 EDT
From: V_Josaphs@prodigy.com ( VINCE JOSAPHS)
She: by Kiss
Tab Transcription by Vince Josaphs V_Josaphs@prodigy.com

[Rhythm Figure 1]
e|--------------|
B|--------------|
G|--------9--9--|
D|--2--2--9--9--|
A|--2--2--7--7--|
E|--0--0--------|

e|----------------------------|
B|-------0--3--0-------0--3---|
G|--2h3-----------2h3---------|
D|----------------------------|
A|----------------------------|
E|----------------------------|

e|-------------------------|
B|-------------------------|
G|--------9----------------|
D|--2--2--9--2--2----------|
A|--2--2--7--2--2----------|
E|--0--0-----0--0----------|

[Solo]
e|-------|----------|--------0-----------|----------------0--3--0--------|
B|-------|-------0--|--3--0-----3--0--3--|----------0--3-----------3-----|
G|---12--|--2h3-----|--------------------|-----2h3-----------------------|
D|---12--|----------|--------------------|--2----------------------------|
A|---10--|----------|--------------------|-------------------------------|
E|-------|----------|--------------------|-------------------------------|

e|---0--3--0-----0--3--0-----0-----------|--------------|----------------|
B|------------3-----------3-----3--0--3--|--------------|--0--0-----0----|
G|---------------------------------------|--------9--7--|--------2-------|
D|---------------------------------------|--2--2--9--7--|----------------|
A|---------------------------------------|--2--2--7--5--|----------------|
E|---------------------------------------|--0--0--------|----------------|

[Chorus]
e|---3--0--|-----------------------|--------------|--------------3--|----|
B|---------|-----------------------|--------------|--0--0-----0-----|----|
G|---------|--2--2--2--2--2--2--2--|--------9--7--|--------2--------|----|
D|---------|--2--2--2--2--2--2--2--|--2--2--9--7--|-----------------|----|
A|---------|--0--0--0--0--0--0--0--|--2--2--7--5--|-----------------|----|
E|---------|-----------------------|--0--0--------|-----------------|----|

e|------------|--------------------------------------|-------------------|
B|------------|--------------------------------------|-------------------|
G|------------|--------------------------------0--2--|-------------------|
D|---2--2--0--|--2--0--2--0--2--0--2--0--2--0--------|--2--2--0--2--0----|
A|------------|--------------------------------------|-------------------|
E|------------|--------------------------------------|-------------------|

e|---------------------------------|-------------------------------------|
B|---------------------------------|-------------------------------------|
G|---------------------------0--2--|-------------------------------------|
D|---2--0--2--0--2--0--2--0--------|--2--2-----2-----2-----2-----2-------|
A|---------------------------------|--2--2--0--2--0--2--0--2--0--2--0----|
E|---------------------------------|--0--0--0--0--0--0--0--0--0--0--0----|

e|----------------||-------------------|-------------------|-------------|
B|----------------||-------------0--3--|-------------0--3--|-------------|
G|---------------*||--9--9--2h3--------|--9--9--2h3--------|-----9--9----|
D|---2-----5--7--*||--9--9-------------|--9--9-------------|-----9--9----|
A|---2--0--5--7---||--7--7-------------|--7--7-------------|-----7--7----|
E|---0--0--3--5---||-------------------|-------------------|-------------|

e|------------------|-----------|-----------|----------------------------|
B|--------0-----3^--|-----------|-----------|----------------------------|
G|---2h3------------|-----------|--9--9--9--|----------------------------|
D|------------------|--2--2--2--|--9--9--9--|----------------------------|
A|------------------|--2--2--2--|--7--7--7--|----------------------------|
E|------------------|--0--0--0--|-----------|----------------------------|

************************************

| h  Hammer-on
| *  Natural harmonic

************************************
Suggest correction
comments
print report bad tab
3 comments total.
0 reply
simmons100 31 May 22, 2007 01:20 PM

not bad

0 reply
rich_rocks090 10 Oct 24, 2008 04:41 PM

This tab was really good it is pretty close to the real thing to me...

0 reply
princessbubblegumgk 10 Jan 05, 2016 07:23 PM

this sounds pretty good
also great song

guest
You may want to rate the tab now too:
select rating
Wanna post a correction for this tab? Suggest correction