Oops, an error
Loading. Please wait.

Shock Me Tab

version 2
version 2

Whole song

by KISS
15,078 views 24 this week
1 commentread comment
1 2 3 4 5
accurate
x 3
add to favorites
launch autoscroll
font size
0
reset
how to read this tab
guitar tuner
Tab Pro tools
  • play this tab
  • loop segment
  • change instrument
  • show fretboard
  • metronome
×
Best way to learn
"Shock Me"
Autoscroll
slow
fast
+/-
esc
set tempo
stop
Contributor
Key:
/    = slide up
\    = slide down
b    = bend (whole step)
b^   = bend (1/2 step)
b^^  = bend (1 1/2 steps)
pb   = pre-bend
r    = release-bend
t    = tap with righthand finger
h    = hammer-on
p    = pull-off
~    = Vibrato
*    = Natural Harmonic
#(#) = Trill
**   = Artificial Harmonic
x    = Dead notes (no pitch)
P.M. = Palm mute (- -> underneath indicates which notes)
(\)  = Dive w\bar
(/)  = Release w\bar
Tp   = Tap w\plectrum




Rhythm Fig. 1
                                                     
Eb|---------------------------------------------------|
Bb|--3--2----2----2--3--2----2--3--2------------------|
Gb|--2--2----2----2--2--2----2--2--2--0----0----------|
Db|--4--2----2----2--4--2----2--4--2--0----0----------|
Ab|--0--0----0----0--0--0----0--0--0------------------|
Eb|-----------------------------------2b---2b---------|



End 1
                                               
Eb|---------------------------------------------------|
Bb|----7--7-----8--7----------------------------------|
Gb|----7--7-----7--7----0----0--0----2----------------|
Db|----7--7-----7--7----0-------0----2----------------|
Ab|----5--5--5-----------------------0----------------|
Eb|---------------------2b------2b--------------------|



End 2
                                                
Eb|---------------------------------------------------|
Bb|----7--7-----8--7----------------------------------|
Gb|----7--7-----7--7----0----0--0----2------2---------|
Db|----7--7-----7--7----0-------0----2------2---------|
Ab|----5--5--5-----------------------0------0---------|
Eb|---------------------2b------2b--------------------|



End 3
                                                 
Eb|---------------------------------------------------|
Bb|----7--7-----8--7----------------------------------|
Gb|----7--7-----7--7----0----0--0----2------2-2-------|
Db|----7--7-----7--7----0-------0----2------2-2-------|
Ab|----5--5--5-----------------------0------0-0-------|
Eb|---------------------2b------2b--------------------|



Rhythm Fig. 2a
                                       
Eb|---------------------------------------------------|
Bb|---------------------------------------------------|
Gb|--2------------------------------------------------|
Db|--2------------------------------------------------|
Ab|--0------------------------------------------------|
Eb|---------------------------------------------------|


                                                 
Eb|---------------------------------------------------|
Bb|----7--7-----8--7----------------------------------|
Gb|----7--7-----7--7----0----0--0----2------2-2-------|
Db|----7--7-----7--7----0-------0----2------2-2-------|
Ab|----5--5--5-----------------------0------0-0-------|
Eb|---------------------2b------2b--------------------|



Rhythm Fig. 2b
                                       
Eb|---------------------------------------------------|
Bb|---------------------------------------------------|
Gb|---------------------------------------------------|
Db|--7------------------------------------------------|
Ab|--0------------------------------------------------|
Eb|---------------------------------------------------|


                                                 
Eb|---------------------------------------------------|
Bb|----7--7-----8--7----------------------------------|
Gb|----7--7-----7--7----0----0--0----2----------------|
Db|----7--7-----7--7----0-------0----2------7-7-------|
Ab|----5--5--5-----------------------0------0-0-------|
Eb|---------------------2b------2b--------------------|



Rhythm Fig. 2c
                                       
Eb|---------------------------------------------------|
Bb|---------------------------------------------------|
Gb|--2------------------------------------------------|
Db|--2------------------------------------------------|
Ab|--0------------------------------------------------|
Eb|---------------------------------------------------|


                                                 
Eb|---------------------------------------------------|
Bb|----7--7-----8--7----------------------------------|
Gb|----7--7-----7--7----0----0--0----2----x--x--------|
Db|----7--7-----7--7----0-------0----2----x--x--------|
Ab|----5--5--5-----------------------0----x--x--------|
Eb|---------------------2b------2b--------------------|



Rhythm Fig. 2d
                                       
Eb|---------------------------------------------------|
Bb|---------------------------------------------------|
Gb|---------------------------------------------------|
Db|--7------------------------------------------------|
Ab|--0------------------------------------------------|
Eb|---------------------------------------------------|


                                               
Eb|---------------------------------------------------|
Bb|----7--7-----8--7----------------------------------|
Gb|----7--7-----7--7----0----0--0----2----------------|
Db|----7--7-----7--7----0-------0----2----------------|
Ab|----5--5--5-----------------------0----------------|
Eb|---------------------2b------2b--------------------|



Rhythm Fig. 3a
                                                         
Eb|---------------------------------------------------|
Bb|-------------------------------------------------7-|
Gb|------------------------9/-11--11--9/-11--9--11--7-|
Db|--7/9---9--7/-9--7--9---9/-11--11--9/-11--9--11--7-|
Ab|--7/9---9--7/-9--7--9---7/-9---9---7/-9---7--9---5-|
Eb|--5/7---7--5/-7--5--7------------------------------|


                                         
Eb|---------------------------------------------------|
Bb|--7------------------3--------3--------------------|
Gb|--7------------------0--------0--------------------|
Db|--7------------------------------------------------|
Ab|--5------------------3--------2--------------------|
Eb|---------------------------------------------------|



Rhythm Fig. 3b
                                                         
Eb|---------------------------------------------------|
Bb|-------------------------------------------------7-|
Gb|------------------------9/-11--11--9/-11--9--11--7-|
Db|--7/9---9--7/-9--7--9---9/-11--11--9/-11--9--11--7-|
Ab|--7/9---9--7/-9--7--9---7/-9---9---7/-9---7--9---5-|
Eb|--5/7---7--5/-7--5--7------------------------------|


                                         
Eb|---------------------------------------------------|
Bb|---------------------------------------------------|
Gb|---------------------------------------------------|
Db|--7------------------5--------5--------------------|
Ab|--5------------------3--------2--------------------|
Eb|---------------------------------------------------|



Rhythm Fig. 4a
                                          
Eb|---------------------------------------------------|
Bb|-------------------3-------------------------------|
Gb|--2----2-----------0-------------------------------|
Db|--2----2-----------0-------------------------------|
Ab|--0----0-------------------------------------------|
Eb|----------------0--3-------------------------------|
                  P.M.

                                            
Eb|---------------------------------------------------|
Bb|---------------------------------------------------|
Gb|--7--------7--7-------7--------5--5----------------|
Db|--7--------7--7-------7--------5--5----------------|
Ab|--5--------5--5-------5--------3--3----------------|
Eb|---------------------------------------------------|



Rhythm Fig. 4b
                                          
Eb|---------------------------------------------------|
Bb|---------------------------------------------------|
Gb|--2----2-------------------------------------------|
Db|--2----2-----------5-------------------------------|
Ab|--0----0-----------5-------------------------------|
Eb|----------------0--3-------------------------------|
                  P.M.

                                            
Eb|---------------------------------------------------|
Bb|---------------------------------------------------|
Gb|--7--------7--7-------7--------5--5----------------|
Db|--7--------7--7-------7--------5--5----------------|
Ab|--5--------5--5-------5--------3--3----------------|
Eb|---------------------------------------------------|



Rhythm Fig. 5a
                                          
Eb|---------------------------------------------------|
Bb|-------------------3-------------------------------|
Gb|--2----2-----------0-------------------------------|
Db|--2----2-----------0-------------------------------|
Ab|--0----0-------------------------------------------|
Eb|----------------0--3-------------------------------|
                  P.M.

                                                  
Eb|---------------------------------------------------|
Bb|---------------------------------------------------|
Gb|--7--------7--7----7/-9--9--9--9--9--9--9--9-------|
Db|--7--------7--7----7/-9--9--9--9--9--9--9--9-------|
Ab|--5--------5--5----5/-7--7--7--7--7--7--7--7-------|
Eb|---------------------------------------------------|



Rhythm Fig. 5b
                                          
Eb|---------------------------------------------------|
Bb|---------------------------------------------------|
Gb|--2----2-------------------------------------------|
Db|--2----2-----------5-------------------------------|
Ab|--0----0-----------5-------------------------------|
Eb|----------------0--3-------------------------------|
                  P.M.

                                                  
Eb|---------------------------------------------------|
Bb|---------------------------------------------------|
Gb|--7--------7--7----7/-9--9--9--9--9--9--9--9-------|
Db|--7--------7--7----7/-9--9--9--9--9--9--9--9-------|
Ab|--5--------5--5----5/-7--7--7--7--7--7--7--7-------|
Eb|---------------------------------------------------|



Rhythm Fig. 6
                                                  
Eb|---------------------------------------------------|
Bb|---------------------------------------------------|
Gb|---------------------------------------------------|
Db|--7/9---9--7/-9--7------7/-9--9--7/-9--7-----------|
Ab|--7/9---9--7/-9--7------7/-9--9--7/-9--7-----------|
Eb|--5/7---7--5/-7--5------5--7--7--5--7--5-----------|
   < - - - - - - - - - - 4x - - - - - - - - - - - - - >


Eb|---------------------------------------------------|
Bb|--7------------------3--------3--------------------|
Gb|--7------------------0--------0--------------------|
Db|--7------------------------------------------------|
Ab|--5------------------3--------2--------------------|
Eb|---------------------------------------------------|



Rhythm Fig. 7a
                                          
Eb|---------------------------------------------------|
Bb|-------------------3-------------------------------|
Gb|--2----2-----------0-------------------------------|
Db|--2----2-----------0-------------------------------|
Ab|--0----0-----------0-------------------------------|
Eb|----------------0----------------------------------|
   < - - - - - - - 4x - - - - - - - >

                                            
Eb|---------------------------------------------------|
Bb|---------------------------------------------------|
Gb|--7--------7--7-------7--------5--5----------------|
Db|--7--------7--7-------7--------5--5----------------|
Ab|--5--------5--5-------5--------3--3----------------|
Eb|---------------------------------------------------|



Rhythm Fig. 7b
                                          
Eb|---------------------------------------------------|
Bb|---------------------------------------------------|
Gb|--2----2-------------------------------------------|
Db|--2----2-----------5-------------------------------|
Ab|--0----0-----------5-------------------------------|
Eb|----------------0--3-------------------------------|
   < - - - - - - - 4x - - - - - - - >

                                             
Eb|---------------------------------------------------|
Bb|---------------------------------------------------|
Gb|--7--------7--7-------7--------5--5----------------|
Db|--7--------7--7-------7--------5--5----------------|
Ab|--5--------5--5-------5--------3--3----------------|
Eb|---------------------------------------------------|




Solo

Eb|--/12-12-12-12-12-12-12\--------12------12-----------/12-15-12-15-|
Bb|--/12-12-12-12-12-12-12\---/12------12-----15~--------------------|
Gb|------------------------------------------------------------------|
Db|------------------------------------------------------------------|
Ab|------------------------------------------------------------------|
Eb|------------------------------------------------------------------|
                              Let ring - - - >


Eb|--15b-----15b-----15b------15b----15b---15b--r15\-----------------|
Bb|------------------------------------------------------------------|
Gb|---------------------------------------------------------5--7-----|
Db|-----------------------------------------------------5h7----------|
Ab|------------------------------------------------------------------|
Eb|------------------------------------------------------------------|



Eb|-------------------------------------------8p7p5------------------|
Bb|-------------------------------------------------8-------8p7p5----|
Gb|--7b----7b----7b--r7-5h7p5----5h6------------------------------7--|
Db|---------------------------7--------------------------------------|
Ab|------------------------------------------------------------------|
Eb|------------------------------------------------------------------|
                             Let ring        < - - - - 2x - - - - - >


Eb|--8p7p5-----------------------------------------------------------|
Bb|--------8--8p7p5------8p7p5---5-----------------------------------|
Gb|-----------------7----------7-----7b-r7p5---7---5--5h6------------|
Db|------------------------------------------7---7---------7-5-7-----|
Ab|------------------------------------------------------------------|
Eb|------------------------------------------------------------------|
    < - - - 2x - - - >


Eb|----------------------12b^^----12--11--10--12b^^------12--11--10--|
Bb|-------10h12p10----10---------------------------------------------|
Gb|--/11-----------11------------------------------------------------|
Db|------------------------------------------------------------------|
Ab|------------------------------------------------------------------|
Eb|------------------------------------------------------------------|



Eb|--8h10p8-------------------------17-------------------------------|
Bb|---------10~---------17-------17----20p17-------17-17-20p17-------|
Gb|-----------------/19----19b----------------19b--------------19b---|
Db|------------------------------------------------------------------|
Ab|------------------------------------------------------------------|
Eb|------------------------------------------------------------------|
                           < - - - 3x - - - >


Eb|------20b----20b----20b~------20b----20--17--20-17h20p17-----17---|
Bb|--17------------------------------------------------------20------|
Gb|------------------------------------------------------------------|
Db|------------------------------------------------------------------|
Ab|------------------------------------------------------------------|
Eb|------------------------------------------------------------------|



Eb|-------17-------17------17--20-17-19-17---------------------------|
Bb|-(17)--17-(17)--17------17--------------20-17-19-17---------------|
Gb|--19b------19b------19b-----------------------------19p17----19---|
Db|----------------------------------------------------------19------|
Ab|------------------------------------------------------------------|
Eb|------------------------------------------------------------------|



Eb|------------------------------------------------------------------|
Bb|----------------------------10b---r10-b10---r10-10b----r10-10b----|
Gb|-----17-----------------------------------------------------------|
Db|--19----19-17h19p17----17\----------------------------------------|
Ab|--------------------19--------------------------------------------|
Eb|------------------------------------------------------------------|
                               Pick only first - - - - - - - - - >


Eb|------------------------------------------------------------------|
Bb|--10--10--10--10--10--10-10p7~------------------------------------|
Gb|--------------------------------9b---r9-9b---r9-9b---r9-9b--------|
Db|------------------------------------------------------------------|
Ab|------------------------------------------------------------------|
Eb|------------------------------------------------------------------|
    Semi-harm (dig in) - - >


Eb|---------------------------------7-10b---10~----7h10p7----7-------|
Bb|-------------------------------7-----------------------10---10b---|
Gb|--9--9--9--9--9--9-9p7~----9b-------------------------------------|
Db|------------------------------------------------------------------|
Ab|------------------------------------------------------------------|
Eb|------------------------------------------------------------------|
     Semi-harm (dig in)                  Wide vib.


Eb|------------------------------------------------7----------7------|
Bb|----7h10p7---7---------------------------7-9-10-----7-9-10--------|
Gb|-----------9---10-9-7---9---7---7h9-7-----------------------------|
Db|----------------------9---9---9-----------------------------------|
Ab|------------------------------------------------------------------|
Eb|------------------------------------------------------------------|



Eb|---------7-------------7------------------------------------------|
Bb|--7-9-10---10-9-7-9-10---10---7h10p7------------------------------|
Gb|-------------------------------------9--7h9p7-------9b------------|
Db|----------------------------------------------9-------------------|
Ab|------------------------------------------------------------------|
Eb|------------------------------------------------------------------|



Eb|------------------------------------------------------------------|
Bb|------------------------------------------------------------------|
Gb|--r9~-------9b--r9p7--9--9----------------------------------------|
Db|----------------------------7~------------------------------------|
Ab|------------------------------------------------------------------|
Eb|------------------------------------------------------------------|
                              With some serious flanger







SHOCK ME
Ace Frehley

[Rhy. Fig 1 w/ End 1] 
[Rhy. Fig 1 w/ End 2]

[Rhy. Fig 2a w/ Rhy. Fig 2b]
Your lightnin's all I need
My satisfaction grows
[Rhy. Fig 2c w/ Rhy. Fig 2d]
You make me feel at ease
You even make me glow

[Rhy. Fig 3a w/ Rhy. Fig 3b]
Don't cut the power on me
I'm feelin' low, so get me high

[Rhy. Fig 4a w/ Rhy. Fig 4b] (2x)
Shock me, make me feel better
Shock me, put on your black leather
[Rhy. Fig 5a w/ Rhy. Fig 5b]
Shock me, we can come together

[Rhy. Fig 1 w/ End 3]

[Rhy. Fig 2a w/ Rhy. Fig 2b]
And baby, if you do what you've been told
[Rhy. Fig 2c w/ Rhy. Fig 2d]
My insulation's gone, girl you make me overload

[Rhy. Fig 3a w/ Rhy. Fig 3b]
Don't pull the plug on me, no, no
Keep it in and keep me high

[Rhy. Fig 4a w/ Rhy. Fig 4b] (2x)
Shock me, make me feel better
Shock me, put on your black leather
[Rhy. Fig 5a w/ Rhy. Fig 5b]
Shock me, we can come together
Come on

[Solo over Rhy. Fig 1 w/ End 1 (4x)] 
[Rhy. Fig 6]

[Rhy. Fig 7a w/ Rhy. Fig 7b]
Shock me, baby, shock me, oh yeah
Shock me, baby, shock me, oh yeah

[Rhy. Fig 4a w/ Rhy. Fig 4b] (repeat and fade)
Shock me, make me feel better, oh yeah
Come on and shock me, put on your black leather
Baby, I'm down to the bare wire
Shock me, we can come together
Oh yeah, I wanna feel your power
Shock me, make me feel better
Baby, I'm down to the bare wire
Shock me, put on your black leather
Baby, come on, come on, shock me

comments
We did not receive enough feedback on this tab! Please rate:
print report bad tab
1 2 3 4 5
1 comment total.
0 reply
crazybanana wrote on April 1 2007, 10:36 am

awesome!!!

I want to post or [tab]
guest
You may want to rate the tab now too:
select rating
Please do not post tabs as comments. Select "correction" instead!