Oops, an error
Loading. Please wait.

Shock Me Tab

version 3
version 3

Whole song

by KISS
16,774 views 12 this week
4 commentsread comments
1 2 3 4 5
x 10
add to favorites
launch autoscroll
font size
0
reset
how to read this tab
guitar tuner
Autoscroll
slow
fast
+/-
esc
set tempo
stop
Help us to improve Ultimate-Guitar.com Take our survey!
×
Author
| /  slide up
| \  slide down
| h  hammer-on
| p  pull-off
| ~  vibrato
| +  harmonic
| x  Mute note
| ^  Bend


 INTRO
e|-----------------------------------------------------
B|-3-2--------3-------------------8-7------------------
G|-2-2--2--2--2-------------7-7-7-7-7-----0-----2------
D|-4-2--2--2--4--2-4-2------7-7-7-7-7-----------2------
A|-0-0--0--0--0--0-0-0-5-5--5-5-5-5-5--5-----5--0------
E|---------------------3-3-------------3-----3---------
                       ^ ^             ^     ^
e|-----------------------------------------------------
B|-3-2--------3-------------------8-7------------------
G|-2-2--2--2--2-------------7-7-7-7-7-----0-----2-2----
D|-4-2--2--2--4--2-4-2------7-7-7-7-7-----------2-2----
A|-0-0--0--0--0--0-0-0-5-5--5-5-5-5-5--5-----5--0-0----
E|---------------------3-3-------------3-----3---------
                       ^ ^             ^     ^
 VERSE
e|--------------------------------------
B|------------------8-7-----------------
G|-2----------7-7-7-7-7----0---2-2------
D|-2----------7-7-7-7-7--------2-2------
A|-0----------5-5-5-5-5--5---5-0-0------
E|-----------------------3---3----------
                         ^   ^
e|--------------------------------------
B|------------------8-7-----------------
G|-2----------7-7-7-7-7----0---2-2------
D|-2----------7-7-7-7-7--------2-2------
A|-0----------5-5-5-5-5--5---5-0-0------
E|-----------------------3---3----------
                         ^   ^
 PRE CHORUS
e|-----------------------------------------------------------
B|----------------------------------------------------5--4---
G|------------------9/11--11--9/11-9--11-7--7--7------5--4---
D|------------------9/11--11--9/11-9--11-7--7--7------5--4---
A|-7/9--9-7/9--7-9--7/9---9---7/9--7--9--5--5--5------3--2---
E|-5/7--7-5/7--5-7-------------------------------------------

 CHORUS
e|-------------------------------------------------------
B|----------7---7-7---7--5-5-------0--7---7-7---7--5-5---
G|-2-2-12---7---7-7---7--5-5--2-2--0--7---7-7---7--5-5---
D|-2-2-12---7---7-7---7--5 5--2-2--0--7---7-7---7--5-5---
A|-0-0-10---5---5-5---5--3-3--0-0-----5---5-5---5--3-3---
E|-------------------------------------------------------



INTRO
e|-----------------------------------------------------
B|-3-2--------3-------------------8-7------------------
G|-2-2--2--2--2-------------7-7-7-7-7-----0-----2------
D|-4-2--2--2--4--2-4-2------7-7-7-7-7-----------2------
A|-0-0--0--0--0--0-0-0-5-5--5-5-5-5-5--5-----5--0------
E|---------------------3-3-------------3-----3---------
                       ^ ^             ^     ^
e|-----------------------------------------------------
B|-3-2--------3-------------------8-7------------------
G|-2-2--2--2--2-------------7-7-7-7-7-----0-----2-2----
D|-4-2--2--2--4--2-4-2------7-7-7-7-7-----------2-2----
A|-0-0--0--0--0--0-0-0-5-5--5-5-5-5-5--5-----5--0-0----
E|---------------------3-3-------------3-----3---------
                       ^ ^             ^     ^
 VERSE
e|--------------------------------------
B|------------------8-7-----------------
G|-2----------7-7-7-7-7----0---2-2------
D|-2----------7-7-7-7-7--------2-2------
A|-0----------5-5-5-5-5--5---5-0-0------
E|-----------------------3---3----------
                         ^   ^
e|--------------------------------------
B|------------------8-7-----------------
G|-2----------7-7-7-7-7----0---2-2------
D|-2----------7-7-7-7-7--------2-2------
A|-0----------5-5-5-5-5--5---5-0-0------
E|-----------------------3---3----------
                         ^   ^
 PRE CHORUS
e|-----------------------------------------------------------
B|----------------------------------------------------5--4---
G|------------------9/11--11--9/11-9--11-7--7--7------5--4---
D|------------------9/11--11--9/11-9--11-7--7--7------5--4---
A|-7/9--9-7/9--7-9--7/9---9---7/9--7--9--5--5--5------3--2---
E|-5/7--7-5/7--5-7-------------------------------------------

 CHORUS
e|-------------------------------------------------------
B|----------7---7-7---7--5-5-------0--7---7-7---7--5-5---
G|-2-2-12---7---7-7---7--5-5--2-2--0--7---7-7---7--5-5---
D|-2-2-12---7---7-7---7--5 5--2-2--0--7---7-7---7--5-5---
A|-0-0-10---5---5-5---5--3-3--0-0-----5---5-5---5--3-3---
E|-------------------------------------------------------

Solo

Eb|--/12-12-12-12-12-12-12\--------12------12-----------/12-15-12-15-|
Bb|--/12-12-12-12-12-12-12\---/12------12-----15~--------------------|
Gb|------------------------------------------------------------------|
Db|------------------------------------------------------------------|
Ab|------------------------------------------------------------------|
Eb|------------------------------------------------------------------|
                              Let ring - - - >


Eb|--15b-----15b-----15b------15b----15b---15b--r15\-----------------|
Bb|------------------------------------------------------------------|
Gb|---------------------------------------------------------5--7-----|
Db|-----------------------------------------------------5h7----------|
Ab|------------------------------------------------------------------|
Eb|------------------------------------------------------------------|



Eb|-------------------------------------------8p7p5------------------|
Bb|-------------------------------------------------8-------8p7p5----|
Gb|--7b----7b----7b--r7-5h7p5----5h6------------------------------7--|
Db|---------------------------7--------------------------------------|
Ab|------------------------------------------------------------------|
Eb|------------------------------------------------------------------|
                             Let ring        < - - - - 2x - - - - - >


Eb|--8p7p5-----------------------------------------------------------|
Bb|--------8--8p7p5------8p7p5---5-----------------------------------|
Gb|-----------------7----------7-----7b-r7p5---7---5--5h6------------|
Db|------------------------------------------7---7---------7-5-7-----|
Ab|------------------------------------------------------------------|
Eb|------------------------------------------------------------------|
    < - - - 2x - - - >


Eb|----------------------12b^^----12--11--10--12b^^------12--11--10--|
Bb|-------10h12p10----10---------------------------------------------|
Gb|--/11-----------11------------------------------------------------|
Db|------------------------------------------------------------------|
Ab|------------------------------------------------------------------|
Eb|------------------------------------------------------------------|



Eb|--8h10p8-------------------------17-------------------------------|
Bb|---------10~---------17-------17----20p17-------17-17-20p17-------|
Gb|-----------------/19----19b----------------19b--------------19b---|
Db|------------------------------------------------------------------|
Ab|------------------------------------------------------------------|
Eb|------------------------------------------------------------------|
                           < - - - 3x - - - >


Eb|------20b----20b----20b~------20b----20--17--20-17h20p17-----17---|
Bb|--17------------------------------------------------------20------|
Gb|------------------------------------------------------------------|
Db|------------------------------------------------------------------|
Ab|------------------------------------------------------------------|
Eb|------------------------------------------------------------------|



Eb|-------17-------17------17--20-17-19-17---------------------------|
Bb|-(17)--17-(17)--17------17--------------20-17-19-17---------------|
Gb|--19b------19b------19b-----------------------------19p17----19---|
Db|----------------------------------------------------------19------|
Ab|------------------------------------------------------------------|
Eb|------------------------------------------------------------------|



Eb|------------------------------------------------------------------|
Bb|----------------------------10b---r10-b10---r10-10b----r10-10b----|
Gb|-----17-----------------------------------------------------------|
Db|--19----19-17h19p17----17\----------------------------------------|
Ab|--------------------19--------------------------------------------|
Eb|------------------------------------------------------------------|
                               Pick only first - - - - - - - - - >


Eb|------------------------------------------------------------------|
Bb|--10--10--10--10--10--10-10p7~------------------------------------|
Gb|--------------------------------9b---r9-9b---r9-9b---r9-9b--------|
Db|------------------------------------------------------------------|
Ab|------------------------------------------------------------------|
Eb|------------------------------------------------------------------|
    Semi-harm (dig in) - - >


Eb|---------------------------------7-10b---10~----7h10p7----7-------|
Bb|-------------------------------7-----------------------10---10b---|
Gb|--9--9--9--9--9--9-9p7~----9b-------------------------------------|
Db|------------------------------------------------------------------|
Ab|------------------------------------------------------------------|
Eb|------------------------------------------------------------------|
                                              big vib.


Eb|------------------------------------------------7----------7------|
Bb|----7h10p7---7---------------------------7-9-10-----7-9-10--------|
Gb|-----------9---10-9-7---9---7---7h9-7-----------------------------|
Db|----------------------9---9---9-----------------------------------|
Ab|------------------------------------------------------------------|
Eb|------------------------------------------------------------------|



Eb|---------7-------------7------------------------------------------|
Bb|--7-9-10---10-9-7-9-10---10---7h10p7------------------------------|
Gb|-------------------------------------9--7h9p7-------9b------------|
Db|----------------------------------------------9-------------------|
Ab|------------------------------------------------------------------|
Eb|------------------------------------------------------------------|



Eb|------------------------------------------------------------------|
Bb|------------------------------------------------------------------|
Gb|--r9~-------9b--r9p7--9--9----------------------------------------|
Db|----------------------------7~------------------------------------|
Ab|------------------------------------------------------------------|
Eb|------------------------------------------------------------------|
                              Bend big time!

 CHORUS
e|-------------------------------------------------------
B|----------7---7-7---7--5-5-------0--7---7-7---7--5-5---
G|-2-2-12---7---7-7---7--5-5--2-2--0--7---7-7---7--5-5---
D|-2-2-12---7---7-7---7--5 5--2-2--0--7---7-7---7--5-5---
A|-0-0-10---5---5-5---5--3-3--0-0-----5---5-5---5--3-3---
E|-------------------------------------------------------

e|-------------------------------------------------------
B|----------7---7-7---7--5-5-------0--7---7-7---7--5-5---
G|-2-2-12---7---7-7---7--5-5--2-2--0--7---7-7---7--5-5---
D|-2-2-12---7---7-7---7--5 5--2-2--0--7---7-7---7--5-5---
A|-0-0-10---5---5-5---5--3-3--0-0-----5---5-5---5--3-3---
E|-------------------------------------------------------

Thats it folks Hope you enjoy

SHOCK ME
Ace Frehley


Your lightnin's all I need
My satisfaction grows
You make me feel at ease
You even make me glow


Don't cut the power on me
I'm feelin' low, so get me high


Shock me, make me feel better
Shock me, put on your black leather

Shock me, we can come together



And baby, if you do what you've been told

My insulation's gone, girl you make me overload


Don't pull the plug on me, no, no
Keep it in and keep me high


Shock me, make me feel better
Shock me, put on your black leather
Shock me, we can come together
Come on





Shock me, baby, shock me, oh yeah
Shock me, baby, shock me, oh yeah


Shock me, make me feel better, oh yeah
Come on and shock me, put on your black leather
Baby, I'm down to the bare wire
Shock me, we can come together
Oh yeah, I wanna feel your power
Shock me, make me feel better
Baby, I'm down to the bare wire
Shock me, put on your black leather
Baby, come on, come on, shock me




Suggest correction
comments
print report bad tab
4 comments total. Showing first comments.
0 reply
Sloopy 1,141 Aug 18, 2007 08:34 PM

Fucking awesome. All the other Shock Me tabs blow.

Join the KISS Army!
www.groups.ultimate-guitar.com/kissarmy/

0 reply
Blackghost1094 10 Sep 06, 2010 02:52 PM

what key is the song in?

0 reply
pmcuccia 10 Jun 12, 2015 02:09 PM

1/2 step down

D#

guest
You may want to rate the tab now too:
select rating
Wanna post a correction for this tab? Suggest correction