Oops, an error
Loading. Please wait.

Shock Me Tab

version 4
version 4

Whole song

by KISS
539 views 6 this week
no commentswrite comment
1 2 3 4 5
please rate
add to favorites
launch autoscroll
font size
0
reset
how to read this tab
guitar tuner
Tab Pro tools
  • play this tab
  • loop segment
  • change instrument
  • show fretboard
  • metronome
×
Best way to learn
"Shock Me"
Autoscroll
slow
fast
+/-
esc
set tempo
stop
Contributor
Difficulty
Tuning
intermediate
D# G# C# F# A# D#
Shock Me by KISS
From the album Love Gun
Transcriber: Unknown
--------------------------------------------------------------------



    intro                                                                   "
e:---------------------------------------------------------------------------|
B:----/3------------/3--------/3----------------7-7-7-7/8-7------------------|
G:---2/2-2--2----2-2/2-2---2-2/2-2---0---0------7-7-7-7-7-7------0----2-----9|
D:---2/4-2--2----2-2/4-2---2-2/4-2---0---0------7-7-7-7-7-7------0----2-----7|
A:---0-0-0--0----0-0-0-0---0-0-0-0---x---x------5-5-5-----5-----------0-----0|
E:-----------------------------------2b--2b-------------------2b---2b--------|




  Your lightnin's all...."
e:---------------------------------------------------------------------------|
B:-------------------------7-7-7-8-7----------------------------7-7-7-8-7----|
G:-9-9~--------------------7-7-7-7-7------0----2----9-9-9~------7-7-7-7-7----|
D:-7-7~--------------------7-7-7-7-7------0----2----7-7-7~------7-7-7-7-7----|
A:-0-0~--------------------5-------------------0----0-0-0~------5------------|
E:-------------------------------------2b---2b------------------------------2|




             "Don't cut the..."                                    "Shock me.
e:---------------------------------------------------------------------------|
B:---------------------------------------------------------------------------|
G:--0----2----4---------------------------------------7~---5~--------2---2~--|
D:--0----2----4---4-4-4-4-4------9/11-11--9-11-9-11---7~---5~--5~----2---2~--|
A:-------0----2---2-0-2-0-2------7/9--9---7-9--7-9----5~---3~--2~----0---0~--|
E:b---2b---------------------------------------------------------------------|




  ."                          repeat                                      to
e:----3~-------------------------------------------3-------------------------|
B:----3~-------------------------------------------3-------------------------|
G:----0~-----7----7-7----7-----5--5-------2---2~---0-----7----7-7---7/9-9-9-9|
D:----0~-----7----7-7----7-----5--5-------2---2~---0-----7----7-7---7/9-9-9-9|
A:----x------5----5-5----5-----3--3-------0---0~---x-----5----5-5---5/7-7-7-7|
E:----3~-------------------------------------------3--------------------0-0-0|


                  
                  
  verse 2         
e:---------------|
B:---------------|
G:-9-9-9-9-9-9---|
D:-9-9-9-9-9-9---|
A:-7-7-7-7-7-7---|
E:-0-0-0-0-0-0---|




   solo                 "Come on......"
e:---------12-12-12-12-12-12-12-12-12----------------------------------------|
B:---12/15-12-12-12-12-12-12-12-12-12-15~-----17/20/17/20--20b~--20b~--20b~--|
G:---------------------------------------------------------------------------|
D:---------------------------------------------------------------------------|
A:---------------------------------------------------------------------------|
E:---------------------------------------------------------------------------|





e:------------------------------------------------------8/7/5/---------------|
B:20b~--20b-20b-----------------------------------------------8---8/7/5/-----|
G:---------------------5-7--7b~-7b~-7b/7--5/7/5/4-5/6~------------------7----|
D:-----------------5/7-------------------------------------------------------|
A:---------------------------------------------------------------------------|
E:---------------------------------------------------------------------------|





e:8/7/5/---------------8/7/5/----------8/7/5/--------------------------------|
B:------8---8/7/5/-----------8-8/7/5/--------8-8/7/5/---8/7/5/--5------------|
G:----------------7------------------7---------------7--------7------7b-7-5--|
D:-------------------------------------------------------------------------7-|
A:---------------------------------------------------------------------------|
E:---------------------------------------------------------------------------|





e:-------------------------------12b~--12-10-12-12b~---12-10--10-12-10-------|
B:-------------------10/13/10-------------------------------13---------10-10-|
G:5-7-5---5------------------12b---------------------------------------------|
D:------7---7-5-7------------------------------------------------------------|
A:---------------------------------------------------------------------------|
E:---------------------------------------------------------------------------|





e:--------------------17------------17---------17---------17-----------20b-20|
B:-----17/20/17----17---20/17----17---20/17------20/17------20/17------------|
G:--------------19b-----------19b-----------19b--------19b--------19b--------|
D:---------------------------------------------------------------------------|
A:---------------------------------------------------------------------------|
E:---------------------------------------------------------------------------|




                                                                        ?????
e:b-20b~~-20b--20-17-20--17/20/17--17------17----17-------17-20-17-19-17----1|
B:-------------------------------20--------17----17--17------------------20--|
G:--------------------------------------19b---19b----19b---------------------|
D:---------------------------------------------------------------------------|
A:---------------------------------------------------------------------------|
E:---------------------------------------------------------------------------|




  ?????
e:7--------------------------------------------------------------------------|
B:-20-17/20/17--17-----------------------------------------------------------|
G:------------19---19-17-------------------15b-15b-15b-15b--14-14-14-14-14-14|
D:----------------------19-17------17~---------------------------------------|
A:----------------------------17-19------------------------------------------|
E:---------------------------------------------------------------------------|





e:---------------------------------------------------7-10b-10b~--7/10/7/-----|
B:-------------------------------------------------7--------------------10/7-|
G:-14/11----10b-10b-10b-10b--9-9-9-9-9-9-9-7----9b---------------------------|
D:---------------------------------------------------------------------------|
A:---------------------------------------------------------------------------|
E:---------------------------------------------------------------------------|





e:----------------------------------------7---------77---------7-------------|
B:10b~---7/10/7/-7-----------------7-9-10----7-9-10-----7-9-10---9/10/9/7-7--|
G:--------------9--9-7-9b-7-9b-7---------------------------------------------|
D:---------------------------------------------------------------------------|
A:---------------------------------------------------------------------------|
E:---------------------------------------------------------------------------|


                                             


e:-------------------------------------------|
B:-7/9/7-------------------------------------|
G:------9--7/9/7----9b~--9~--9b/9-7--9--9----|
D:--------------9--------------------------7~|
A:-------------------------------------------|
E:-------------------------------------------|
comments
We did not receive enough feedback on this tab! Please rate:
print report bad tab
1 2 3 4 5
I want to post or [tab]
guest
You may want to rate the tab now too:
select rating
Please do not post tabs as comments. Select "correction" instead!