Oops, an error
Loading. Please wait.

Shout It Out Loud Tab

version 4
version 4

Whole song

Interactive

by KISS
3,659 views 6 this week
no commentswrite comment
1 2 3 4 5
please rate
add to favorites
launch autoscroll
font size
0
reset
how to read this tab
guitar tuner
Autoscroll
slow
fast
+/-
esc
set tempo
stop
Help us to improve Ultimate-Guitar.com Take our survey!
×
Author
Difficulty
Tuning
intermediate
D# G# C# F# A# D#
Shout It Out Loud by KISS
From the album Destroyer
Transcriber: Unknown
--------------------------------------------------------------------



  intro w/bass            2x
e:--------------------------------------|
B:----16-16b~--16-16b~--16/16b/16-14~---|
G:--------------------------------------|
D:--------------------------------------|
A:--------------------------------------|
E:--------------------------------------|




   "Well the nights..."
e:---------------------------------------------------------------------------|
B:---------------------3---------3------------------------3----------3-------|
G:--4~-----------------2---2~----2---2~-------4-4-4~------2---2~-----2---2~--|
D:--4~-----------------0---2~----0---2~-------4-4-4~------0---2~-----0---2~--|
A:--2~-----------------0---0~----0---0~-------2-2-2~------0---0~-----0---0~--|
E:---------------------------------------------------------------------------|




   "It doesn't matter.."
e:---------------------------------------------------------------------------|
B:---------------------------------------------------------------------------|
G:---2--2-4--2-4--2--2-4--2-4--------------------------------------2--2-4--2-|
D:---0--0-0--0-0--0--0-0--0-0----2--2-4-----2-4--------------------0--0-0--0-|
A:-------------------------------0--0-0--/4------2--2-4-----2-4--------------|
E:-----------------------------------------------0--0-0--/4------------------|


                                                                        

                                          "Shout it..."       repeat
e:---------------------------------------------------------------------|
B:---------------------------------------------------------------------|
G:4--2--2-4--2-4--------------------4~------4----4---4---4----4-4--2~--|
D:0--0--0-0--0-0-----2--2-4--2-4----4~------4----2---4---2----4-2--2~--|
A:-------------------0--0-0--0-0----2~------2--------2--------2----0~--|
E:---------------------------------------------------------------------|





e:---------------------------------------------------------------------------|
B:---15~---15--15--15--15--15---15b/15----14------------------------15~---15-|
G:---17b~--17b-17b-17b-17b-17b----------14--14----------------------17b~--17b|
D:------------------------------------------------------------12-0-----------|
A:-----------------------------------------------12-11---12/14---------------|
E:-----------------------------------------------------0---------------------|





e:---------------------------------------------------------------------------|
B:-15--15--15--15---15b/15----14------------------14b/14-12----14b/14-12---12|
G:-17b-17b-17b-17b----------14--14---------11~-------------13-----------13---|
D:-------------------------------------9~------------------------------------|
A:----------------------------------(9)--------------------------------------|
E:---------------------------------------------------------------------------|
Suggest correction new What's this?
You can suggest a correction to this tab. Community and Mods will review your correction and vote to approve or reject it.
comments
We did not receive enough feedback on this tab! Please rate:
print report bad tab
1 2 3 4 5
guest
You may want to rate the tab now too:
select rating
Please do not post tabs as comments. Select "correction" instead!