Oops, an error
Loading. Please wait.

Strutter Bass Tab

version 2
version 2

Whole song

Interactive

by KISS
12,133 views 3 this week
no commentswrite comment
1 2 3 4 5
please rate
add to favorites
launch autoscroll
font size
0
reset
guitar tuner
Autoscroll
slow
fast
+/-
esc
set tempo
stop
Help us to improve Ultimate-Guitar.com Take our survey!
×
Author
----------------------------------------------------------------------------
			     Strutter - Kiss
----------------------------------------------------------------------------

Tabbed By : DWreck025
e-mail: ElementSk8r5@verizon.net

Tuning: 1/2 Step Down: Gb Db Ab Eb

Intro
G|--------------------------------------------------------------------------|
D|-------------------------------------------------4---7-7-5\---------------|
A|-2-2--2---2-2----------------2---3-3-4-5-5--5-5--------------0------------|
E|---------------0-1-2-3--3-3-----------------------------------------------|

G|--------------------------------------------------------------------------|
D|------------------------------------------------4---7--4-------4---7--4\--|
A|-0-4--7--4\2--2---2-2-------------2---3--4--5-5----------5---5------------|
E|-----------------------0-1-2-3--3-----------------------------------------|

Verse
G|---------------------------------------------------------------------------|
D|---------------------------------------------------------------------------|
A|-2---2----------------2---3--4-5---5-4---2--0-5---5-4--2--0-5---5-4--2-0-1-|
E|--------0-1-2-3--3-3-------------------------------------------------------|

G|--------------------------------------------------------------------------|
D|---------------------------------------4---7-7-4--------------------------|
A|-2---2----------------2---3-3-4-5---5-------------0---0-4---7---4\2-------|
E|--------0-1-2-3---3-3-----------------------------------------------------|

G|--------------------------------------------------------------------------|
D|-----------------------------------------4--7-7-4--------4---7---4\2------|
A|-2--2-2----------------2---3-3-4--5---5------------5---5------------------|
E|---------0-1-2-3---3-3----------------------------------------------------|

G|--------------------------------------------------------------------------|
D|-------------------------------------4--7-7-4-----------------------------|
A|-2--2------------------2---3-4-5---5----------0---0---------0-1-----------|
E|--------0-1-2-3---3-3--------------------------------3--2-2---------------|

Chorus
G|--------------------------------------------------------------------------|
D|--------------------------------------------------------------------------|
A|--2---2-2-2-----------------2---2-2-2-------------------------------------|
E|--------------3-3---3-3-3---------------3-3---3-3-3-----------------------|

G|--------------------------------------------------------------------------|
D|--------------------------------------------------------------------------|
A|-----------------------------------5-7---7---5----0-----------------------|
E|--5--7---7----5---7-7---5-7-7---7--------0-----7----2---------------------|

G|--------------------------------------------------------------------------|
D|--------------------------------------------------------------------------|
A|-------------------------------------5-7---7--------3-----5--------0-1----|
E|--5-7---7------5--7-7----5--7-7---7---------------3---------5-------------|

Guitar Solo
G|--------------------------------------------------------------------------|
D|--------------------------------------------------------------------------|
A|--------------------------------------------------------------------------|
E|--3-3----3--3--3----5--7----7-------5--7-7-----5--7--7------7-------------|

G|--------------------------------------------------------------------------|
D|--------------------------------------------------------------------------|
A|--5-7---7----5-------0------5--7----7------3------5-------0---1-----------|
E|--------0------7-------2-----------------3----------5---------------------|

Outro
G|--------------------------------------------------------------------------|
D|--------------------------------------------------------------------------|
A|-----------------------------------------------------5-7----7-------------|
E|--3-3---3-3-3----5--7---7-----5--7-7-----5-7-7----7---------0-------------|

G|--------------------------------------------------------------------------|
D|--------------------------------------------------------------------------|
A|--5-------0------5--7---7---------3--------5------0-1--2-----2------------|
E|----7-------2------------------3-------------5----------------------------|

| /  slide up
| \  slide down
| h  hammer-on
| p  pull-off
| ~  vibrato
| +  harmonic
| x  Mute note
Suggest correction
Give kudos to tab author, rate the tab!
1 2 3 4 5
comments
print report bad tab
guest
You may want to rate the tab now too:
select rating
Please do not post tabs as comments. Select "correction" instead!