Oops, an error
Loading. Please wait.

Sure Know Something Bass Tab

version 2
version 2

Whole song

Interactive

by KISS
8,359 views 30 this week
2 commentsread comments
1 2 3 4 5
excellent!
x 6
add to favorites
launch autoscroll
font size
0
reset
guitar tuner
Autoscroll
slow
fast
+/-
esc
set tempo
stop
Help us to improve Ultimate-Guitar.com Take our survey!
×
Author
Sure Know Something by Kiss
(standard tuning)

b    bend
pb   prebend
r    release bend
(#)  note bent to
p    pull off
h    hammer on
/    slide up
\    slide down

/  3 times
|------------------------------------------------|
|------------------------------------------------|
|-7\---5h7-5----5--7---5h7-5---------------------|
|------------7---------------7--3--5---5-3-0-3-5-|

                                         \ ending 1      \ ending 2        \
|----------------------------------------|---------------|-----------------|
|-------------------------5h7-5----------|---------------|-----------------|
|-------------5h7-5-------------7--5-7\--|------------5\-|-----------------|
|-5-3-0-5-7---------7-5------------------|-3-5-3--/7-----|-0-0-0-0-0-0-0-0-|


Chorus
|------------------------------------------------------|
|------------------------------------------------------|
|-3-3--5-5---3h5--3-2---3-5---5--3-2---3-2-----3-2-----|
|---------------------5--------------5-----5-3-----5-3-|


|------------------------------------------------------------|
|------------------------------------------------------------|
|-5-5---3h5--3-2---3-5--------------3-2------3-2--------3-5--|
|----------------5------0-2-3-5---------5-3------5-3---------|



|---------|---------|---------|---------|---------|
|---------|---------|---------|---------|---------|
|---------|-0-0-0-0-|-2-2-2-2-|-0-0-0-0-|---------|
|-0-0-0-0-|---------|---------|---------|-0-0-0-0-|
4 times    4 times   2 times   2 times   4 times


|---------|---------|---------|---------|---------|
|---------|---------|---------|---------|---------|
|---------|-0-0-0-0-|-2-2-2-2-|-0-0-0-0-|---------|
|-0-0-0-0-|---------|---------|---------|-0-0-0-0-|
4 times    4 times   2 times   2 times   4 times


/  3 times
|------------------------------------------------|
|------------------------------------------------|
|-7\---5h7-5----5--7---5h7-5---------------------|
|------------7---------------7--3--5---5-3-0-3-5-|

                                         \ ending 1      \ ending 2        \
|----------------------------------------|---------------|-----------------|
|-------------------------5h7-5----------|---------------|-----------------|
|-------------5h7-5-------------7--5-7\--|------------5\-|-----------------|
|-5-3-0-5-7---------7-5------------------|-3-5-3--/7-----|-0-0-0-0-0-0-0-0-|



|------------------------------------------------------|
|------------------------------------------------------|
|-3-3--5-5---3h5--3-2---3-5---5--3-2---3-2-----3-2-----|
|---------------------5--------------5-----5-3-----5-3-|


|------------------------------------------------------------|
|------------------------------------------------------------|
|-5-5---3h5--3-2---3-5--------------3-2------3-2--------3-5--|
|----------------5------0-2-3-5---------5-3------5-3---------|
Suggest correction
What's this?
You can suggest a correction to this tab. Community and Mods will review your correction and vote to approve or reject it.
comments
print report bad tab
2 comments total.
0 reply
ankakarbo 12 wrote on September 15 2009, 01:14 pm

shouldn't the whole riff start bit lower ie on the 4th fret???it just sound bit better that way- unless its my crapy bass that its not tune LOL???

0 reply
ankakarbo 12 wrote on September 15 2009, 01:29 pm

I meant the 6th fret obviously, ;)

guest
You may want to rate the tab now too:
select rating
Please do not post tabs as comments. Select "correction" instead!