Oops, an error
Loading. Please wait.

Take Me Tab

version 2
version 2

Whole song

Interactive

by KISS
1,299 views 3 this week
1 commentread comment
1 2 3 4 5
please rate
add to favorites
launch autoscroll
font size
0
reset
how to read this tab
guitar tuner
Autoscroll
slow
fast
+/-
esc
set tempo
stop
Help us to improve Ultimate-Guitar.com Take our survey!
×
Contributor
Difficulty
Tuning
novice
D# G# C# F# A# D#
Take Me by KISS
From the album Rock And Roll Over
Transcriber: Unknown
--------------------------------------------------------------------



   intro                         verses
e:---------------------------------------------------------------------------|
B:---------------------------------------------------------------------------|
G:--5-5---5-5-------7-7---7-7---------------------------------9~-------------|
D:--5-5-7-5-5--7/9--7-7-9-7-7-----9---11--12---11--12---11----7~----9---11--12
A:------7------7/9------9---------7---9---10---9---10---9-----0~----7---9---10
E:--------------------------------0-0---x----x---x----x---x-x-------0-0---x--|


                      
                      
         repeat       
e:-------------------|
B:----------3--------|
G:----------2---2----|
D:----11----0---2----|
A:----9-----0---0----|
E:--x----------------|




    "I said whoa..."
e:---------------------------------------------------------------------------|
B:---------------------------------------------------------------------------|
G:------------4-4-4----4-4-4-----5-5---5-----5-5---5-5-----4-4-4----4-4-4----|
D:------------4-4-4----4-4-4-----5-5-7-5-7---5-5-7-5-5-----4-4-4----4-4-4----|
A:------------2-2-2----2-2-2---------7---7-------7---------2-2-2----2-2-2----|
E:---------------------------------------------------------------------------|


                             
                             

e:--------------------------|
B:--------------------------|
G:5-5---5-5------7-7---7-7--|
D:5-5-7-5-5-7/9--7-7-9-7-7--|
A:----7-----7/9------9------|
E:--------------------------|




     "So take me...:
e:---------------------------------------------------------------------------|
B:-----------------------3--3------------------------------------------------|
G:-----------------------2--2--2---------------------------------------------|
D:------------------2~---0--0--2----------------2~--5--7--9------------------|
A:-----------------------------0--------------------3--5--7------------------|
E:---------0-0--3-4----------------3-2-0-0--3-4--------------12/0----0-0--3-4|





e:---------------------------------------------------------------------------|
B:------3--3-----------------------------------------------------------------|
G:------2--2--2--2-----5-5---5-5------7-7---7-7----------------------------2-|
D:-2~---0--0--2--2-----5-5-7-5-5-7/9--7-7-9-7-7-------------2~---------2~--2-|
A:------------0--0---------7-----7/9------9--------------------------------0-|
E:-------------------------------------------------0-0--3-4----3-0-3-4-------|


                              
                              

e:---------------------------|
B:-------------------3-3-----|
G:-------------------2-2--2--|
D:-----------2~------0-0--2--|
A:------------------------0--|
E:--0-0--3-4----3-0----------|




    solo
e:------10/7--7--------------------------------------------------------------|
B:----------10---10/7--7-----------------------------5~----------------------|
G:-------------------9----9/7-7----------------------5~--7b--7b/7/5---7~----5|
D:---------------------------9---9/7-7----------9~-----------------7-----5/7-|
A:----------------------------------9---7-7-5--------------------------------|
E:--------------------------------------------7------------------------------|





e:------------------------------------------------12~-------------12~--------|
B:---------------------------------------------------------------------------|
G:--7~----------------------------2---------12-13-----12----12-13------------|
D:----------------2~----------2~--2---14-14--------------14--------------14-14
A:--------------------------------0----------------------------------0-------|
E:-------0-0--3-4----3-0--3-4------------------------------------------------|


                                                         

                      outtro solo            etc
e:-------12~-------|--15-15/12----15-15/12----15-15/12--|
B:-----------------|----------15----------15----------15|
G:-12-13-----12----|------------------------------------|
D:--------------14-|------------------------------------|
A:-----------------|------------------------------------|
E:-----------------|------------------------------------|
comments
We did not receive enough feedback on this tab! Please rate:
print report bad tab
1 2 3 4 5
1 comment total.
+2 reply
swave75 1,921 wrote on November 14 2012, 08:05 pm

Excellent!!!

I want to post or [tab]
guest
You may want to rate the tab now too:
select rating
Please do not post tabs as comments. Select "correction" instead!