Oops, an error
Loading. Please wait.

Tears Are Falling Bass Tab

version 1
version 1

Whole song

Interactive

by KISS
2,219 views 6 this week
no commentswrite comment
1 2 3 4 5
please rate
add to favorites
launch autoscroll
font size
0
reset
guitar tuner
Autoscroll
slow
fast
+/-
esc
set tempo
stop
Help us to improve Ultimate-Guitar.com Take our survey!
×
Author
Difficulty
novice
TEARS ARE FALLING (from the KISS CD "ASYLUM")
--------------------                                                                        
Tuned down 1/2-step

Key:
/    = slide up
\    = slide down
b    = bend (whole step)
b^   = bend (1/2 step)
b^^  = bend (1 1/2 steps)
pb   = pre-bend
r    = release-bend
t    = tap with righthand finger
h    = hammer-on
p    = pull-off
~    = Vibrato
*    = Natural Harmonic
#(#) = Trill
**   = Artificial Harmonic
x    = Dead notes (no pitch)
P.M. = Palm mute (- -> underneath indicates which notes)
(\)  = Dive w\bar
(/)  = Release w\bar
Tp   = Tap w\plectrum



Rhythm Fig. 1
                                                          
Gb|---------------------------------------------------|
Db|---------------------------------------------------|
Ab|---------------------------------------------------|
Eb|--2--2--2--2--2--2--2--2--2--2--2--2--2--2--2--2---|


                                                      
Gb|---------------------------------------------------|
Db|---------------------------------------------------|
Ab|--5--5--5--5--5--5--5--5--7--7--7--7--7--7--7--7---|
Eb|---------------------------------------------------|



Rhythm Fig. 2
                                                  
Gb|---------------------------------------------------|
Db|---------------------------------------------------|
Ab|-------------------------------------------4/------|
Eb|--2--2----2--2--2----2--2--2----2--2--2------------|


                                                 
Gb|---------------------------------------------------|
Db|---------------------------------------------------|
Ab|--7--7----7--7--7----7--7--7----7--7--7\-----------|
Eb|---------------------------------------------------|



Rhythm Fig. 3
                                                  
Gb|---------------------------------------------------|
Db|---------------------------------------------------|
Ab|-------------------------------------------4/------|
Eb|--2--2----2--2--2----2--2--2----2--2--2------------|


                                                   
Gb|---------------------------------------------------|
Db|---------------------------------------------------|
Ab|--7--7----7--7--7----7--7--7----7--6--6--4--4------|
Eb|---------------------------------------------------|



Rhythm Fig. 4
                                                  
Gb|---------------------------------------------------|
Db|---------------------------------------------------|
Ab|--5--5----5--5--5----5--5--5----5--5--5----5-------|
Eb|---------------------------------------------------|



End 1
                                                    
Gb|---------------------------------------------------|
Db|---------------------------------------------------|
Ab|--7--7----7--7--7----------------------------------|
Eb|---------------------0--0--0--0--0--0--0--0--0-----|



End 2
                                                     
Gb|---------------------------7--9-----11-------------|
Db|---------------------------------------------------|
Ab|--7--7----7--7--7----7--7--------x------x--0--0----|
Eb|---------------------------------------------------|



End 3
                                                    
Gb|---------------------------------------------------|
Db|----------------------------/14----14--x--14\------|
Ab|--7--7----7--7--7----7--7\-------------------------|
Eb|---------------------------------------------------|



End 4
                                                       
Gb|------------------------------9-----9/11---13/-14\-|
Db|---------------------------------------------------|
Ab|--7--7----7--7--7----7--7--7----(7)----------------|
Eb|---------------------------------------------------|



Rhythm Fig. 5
                                                      
Gb|---------------------------------------------------|
Db|---------------------------------------------------|
Ab|---------------------------------------------------|
Eb|--2--2--2--2--2--2--2--2--2--2--2--2--2--2--2--2---|



Rhythm Fig. 6
                                                   
Gb|---------------------------------------------------|
Db|--7---------------/11----9-------------------------|
Ab|-----5----5--5--5-----------7----7--7h9---7--------|
Eb|---------------------------------------------------|



Rhythm Fig. 7
                                                    
Gb|---------------------------------------------------|
Db|---------------------------------------------------|
Ab|-------------------------------------------7\------|
Eb|--2--2--2--2--2--2--2--2--2--2--2--2--2------------|



Rhythm Fig. 8
                                                      
Gb|---------------------------------------/18---------|
Db|--------------------------------------------18\----|
Ab|---------------------------------------------------|
Eb|--2--2--2--2--2--2--2--2--2--2--2--2---------------|


                                                      
Gb|---------------------------------------------------|
Db|---------------------------------------------------|
Ab|--5--5--5--5--5--5--5--5--7--7--7--7--7--7--7--7---|
Eb|---------------------------------------------------|


                                                     
Gb|---------------------------------------------------|
Db|----------------------------------/11----9--7------|
Ab|---------------------------------------------------|
Eb|--2--2--2--2--2--2--2--2--2--2--2------------------|


                                                      
Gb|---------------------------------------------------|
Db|-----------------------------------------------7---|
Ab|--5--5--5--5--5--5--5--5--7--7--7--7--------7------|
Eb|--------------------------------------0--0---------|


                                                     
Gb|----------------------------------/9----7--6-------|
Db|----------------------------------------------9----|
Ab|---------------------------------------------------|
Eb|--2--2--2--2--2--2--2--2--2--2--2------------------|


                                                          
Gb|---------------------------------------------------|
Db|---------------------------------------------------|
Ab|--5--5--5--5--5--5--5--5--7--7--7--7--7------------|
Eb|-----------------------------------------0--0--0---|





TEARS ARE FALLING
Paul Stanley

[Rhy. Fig 5] (2x)
[Rhy. Fig 1] (2x)

[Rhy. Fig 2]
I read your mind like an open book
[Rhy. Fig 3]
You lost the fire in your eyes
[Rhy. Fig 2]
You turn to me with a different look

[Rhy. Fig 4 w/ End 1]
And then it raining, looks like it's raining

[Rhy. Fig 1] (3x)
Oh no, tears are falling
Oh no, tears are falling 
Oh no, tears are falling

[Rhy. Fig 2]
Something is wrong as I hold you near
[Rhy. Fig 3]
Somebody else holds your heart
[Rhy. Fig 2]
You look at me with your eyes in tears

[Rhy. Fig 4 w/ End 2]
And then it raining, looks like it's raining

[Rhy. Fig 1] (3x)
Oh no, tears are falling
Oh no, tears are falling 
Oh no, tears are falling

[Rhy. Fig 5] (2x)
(I saw you cry)

[Rhy. Fig 5] (3x)
[Rhy. Fig 6]
[Rhy. Fig 5]
[Rhy. Fig 7]

[Rhy. Fig 4 w/ End 3]
And now it raining, looks like it's raining
[Rhy. Fig 4 w/ End 4]
And now it raining, looks like it's raining

[Rhy. Fig 1] (2x)
Oh no, tears are falling
Oh no, tears are falling 
Oh no, tears are falling

(Someone stole your heart)
Oh no, tears are falling
(They're falling from your eyes)
Oh no, tears are falling
Oh no, tears are falling

[Rhy. Fig 8]
Oh no, tears are falling
Oh no, tears are falling 
Oh no, tears are falling

Oh no, tears are falling
Oh no, tears are falling 
Oh no, tears are falling

Oh no, tears are falling
Oh no, tears are falling 
Oh no, tears are falling

[Rhy. Fig 1] (repeat and fade)
Oh no, tears are falling
Oh no, tears are falling 
Oh no, tears are falling
Suggest correction
Give kudos to tab author, rate the tab!
1 2 3 4 5
comments
print report bad tab
guest
You may want to rate the tab now too:
select rating
Please do not post tabs as comments. Select "correction" instead!