Oops, an error
Loading. Please wait.

Tomorrow And Tonight Tab

by KISS
956 views 12 this week
no commentswrite comment
1 2 3 4 5
please rate
add to favorites
launch autoscroll
font size
0
reset
how to read this tab
guitar tuner
Tab Pro tools
  • play this tab
  • loop segment
  • change instrument
  • show fretboard
  • metronome
×
Best way to learn
"Tomorrow And Tonight"
Autoscroll
slow
fast
+/-
esc
set tempo
stop
Contributor
Difficulty
Tomorrow And Tonight by KISS
From the album Love Gun
Transcriber: Unknown
--------------------------------------------------------------------



                                                   "Everybody's high.."
e:---5/4-2-------------------------------------------------------------------|
B:---5/4-2--4-3--------------------------------------------------------------|
G:----------4-3-4--6---------------------------------------------------------|
D:--------------4--6-6-8-6-8-6-6-8-6-8-6--7/6/4-7/6/4--6-6-8-6-8-6-6-8-6-8---|
A:-----------------4-4-4-4-4-4-4-4-4-4-4--7/6/4-7/6/4--4-4-4-4-4-4-4-4-4-4--6|
E:--------------------------------------------------------------------------4|
                          etc



                                                                            "
e:---------------------------------------------------------------------------|
B:---------------7-7-7-6-----------------------------------------7-7-7-6-----|
G:---------------6-6-6-6-----------------------------------------6-6-6-6----6|
D:-----------6-6-6-6-6-6----6-6-8-6-8-6-6-8-6-8--------------6-6-6-6-6-6----4|
A:-6-8-6-6---4-4-4-4-4-4----4-4-4-4-4-4-4-4-4-4--6-6-8-6-6---4-4-4-4-4-4-----|
E:-4-4-4-4---------------------------------------4-4-4-4-4-------------------|




  Are you happy..."
e:---------------------------------------------------------------------------|
B:----------------------------------------------------------------7-6--------|
G:~----------------------------------6~-----------------6~--------6-6---8-8-8|
D:~-----------------6--6--7/6/4------4~----6--6-8-8-6---4~---6--6-6-6---6-6-6|
A:------------------4--4--7/6/4------------4--4-4-4-4--------4--4-4-4--------|
E:------------------------------7-4------------------------------------------|




                                 "Tomorrow and.."
e:----------------5/4/2------------------------------------------------------|
B:----------------5/4/2--4/3-------------------------------------------------|
G:-8-8-8-8-8-8-----------4/3/4-------------------------------6-6--8-8-8-6---8|
D:-6-6-6-6-6-6---------------4-----6-6-8--8-6--6-6-8--8-6----4-4--4-4-4-4---6|
A:---------------------------------4-4-4--4-4--4-4-4--4-4--------------------|
E:---------------------------------------------------------------------------|


                                                             

                                       Oh yeah, uh huh..."
e:----------------------------------------------------------|
B:----------------------------------------------------------|
G:--8--8~----------------------------------6----6--------8--|
D:--6--6~------6-6-8--8-6--6-6-8--8-6----6-4----4-6----6-6--|
A:-------------4-4-4--4-4--4-4-4--4-4----4--------4----4----|
E:----------------------------------------------------------|




     solo
e:----9---9-9--9---9----9----------------12-11-9------------------------------|
B:----12b------12b-12b--12b~--12b/12-9----------12-9---------11--11/9--------|
G:---------------------------------------------------11-9----11--11/9-11-9--9|
D:------------------------------------------------------9-------------11-----|
A:---------------------------------------------------------------------------|
E:---------------------------------------------------------------------------|





e:------------------------------9---11b--9------------9~---------------------|
B:------11b/11-11b-11-9---9-9/12------------9--------------------------------|
G:/11------------------------------------------11--10-----11b-11b/11-9----11b|
D:--------------------------------------------------------------------11-----|
A:---------------------------------------------------------------------------|
E:---------------------------------------------------------------------------|





e:---------------------------------------------------------------------------|
B:----------------------------12b~~--9-9/12/9---------11~~--11-11/12/11/9---1|
G:-11b/11-9----------------------------------11--9~----------------------11--|
D:---------11--9~--11~--13~--------------------------------------------------|
A:---------------------------------------------------------------------------|
E:---------------------------------------------------------------------------|


                                                                   


e:------------------------------12--12b/12-12b/12-12b/12-12b/12-14b|
B:2b~---12b~~--9-9/12/9--------------------------------------------|
G:---------------------11--9~--------------------------------------|
D:-----------------------------------------------------------------|
A:-----------------------------------------------------------------|
E:-----------------------------------------------------------------|
comments
We did not receive enough feedback on this tab! Please rate:
print report bad tab
1 2 3 4 5
I want to post or [tab]
guest
You may want to rate the tab now too:
select rating
Please do not post tabs as comments. Select "correction" instead!