Oops, an error
Loading. Please wait.

Unholy Tab

version 1
version 1

Whole song

Interactive

12,358 views 9 this week
1 commentread comment
1 2 3 4 5
x 4
add to favorites
launch autoscroll
font size
0
reset
how to read this tab
guitar tuner
backing track
0:00
0:00
×
Best way to learn
"Unholy"
Autoscroll
slow
fast
+/-
esc
set tempo
stop
Tuning
D# G# C# F# A# D#
Tune down 1/2 step


 intro

Eb|------------------------------------------|
Bb|------------------------------------------|
Gb|------------------------------------------|
Db|-4/5----4/5-----------3--2------2--3------|
Ab|-x/x----x/x----1--1---------1-------------|
Eb|-2/3----2/3-------------------------------|


rhythm

Eb|-----------------------------------------|
Bb|-----------------------------------------|
Gb|-2--5/7---5------------------------------|
Db|-2--5/7---5--5---------------------------|
Ab|-0--3/5---3--5---3-----------------------|
Eb|-------------3---1--6--5--4--------------|


Eb|--------------------------------------------|
Bb|--------------------------------------------|
Gb|-4/5/4---------------7/8/7---7--7--5--7--5--|
Db|-4/5/4---------------7/8/7---7--7--5--7--5--|
Ab|-2/3/2--0-0-0-0-0----5/6/5---------------3--|
Eb|--------------------------------------------|


chorus

Eb|------------------------------------------|
Bb|------------------------------------------|
Gb|---------------------5--4-----------------|
Db|---------------------5--4-----------------|
Ab|-----3h5v--3---------3--2----5------3--5--|
Eb|-5-------------5v----------------5--------|


Eb|-----------------------------------------|
Bb|-----------------------------------------|
Gb|-----------------------------------------|
Db|-----------------------------------------|
Ab|--5------3--5------3--2--1---------------|
Eb|------5---------1------------------------|


Eb|------------------------------------------|
Bb|------------------------------------------|
Gb|---------------------5--4-----------------|
Db|---------------------5--4-----------------|
Ab|-----3h5-v--3--------3--2----5------3--5--|
Eb|-5----------------5v-------------5--------|


Eb|-----------------------------------|
Bb|-----------------------------------|
Gb|-----------------------------------|
Db|-----------------------------------|
Ab|--5------3--5---3------------------|
Eb|------5---------1------------------|


before solo

Eb|--------------------------------------------|
Bb|--------------------------------------------|
Gb|--------------------------------------------|
Db|--------------------------------------------|
Ab|-5-------3--5--5------3--5------3----2------|
Eb|-----5--------------5--------1-----1-----1--|


Eb|------------------------------------------|
Bb|------------------------------------------|
Gb|------------------------------------------|
Db|------------------------------------------|
Ab|-3-----2-v--------------------------------|
Eb|----1-------------------------------------|


rhythm during solo

Eb|-----------------------------------------|
Bb|-----------------------------------------|
Gb|-------------------------------8-7-------|
Db|-------------------------------6-5-------|
Ab|-----------------------------------------|
Eb|-0--5--3--0--0--5--3--0------------------|


Eb|--------------------------------------|
Bb|--------------------------------------|
Gb|--------------------------------------|
Db|--------------------------------------|
Ab|---------------------2--1--0----------|
Eb|-0--5--3--0--0-1----------------------|


Eb|-----------------------------------------|
Bb|-----------------------------------------|
Gb|-----------------------------------------|
Db|-----------------------------------------|
Ab|------------------------------3--2--1----|
Eb|-0--5-3-0-5--3--0--3--2--1---------------|
Suggest correction
comments
print report bad tab
1 comment total.
0 reply
wyldefire38 10 Apr 28, 2007 02:01 PM

eh, domino tab is better

guest
You may want to rate the tab now too:
select rating
Wanna post a correction for this tab? Suggest correction