Oops, an error
Loading. Please wait.

War Machine Bass Tab

version 2
version 2

Whole song

Interactive

by KISS
470 views 1 this week
no commentswrite comment
1 2 3 4 5
please rate
add to favorites
launch autoscroll
font size
0
reset
guitar tuner
Autoscroll
slow
fast
+/-
esc
set tempo
stop
Help us to improve Ultimate-Guitar.com Take our survey!
×
Author
Difficulty
novice
guitar intro x2

intro

G-------------------------|
D-------------------------|
A----------------5h7-5h7--|
E--0-0-0-0-0-0-0----------|

riff 1

G----------------------|
D----------------------|
A-----------------5----|
E--07-03-05-050-3---0--|

verse A

G---------------------------------------|
D---------------------------------------|
A-------0-0---0--0-0--------------------|
E--0-3------3--------3--0-0-3-0--0-0-3--|

G---------------------------------|
D---------------------------------|
A--0-0---0--0-0---220-220-222-02--|
E------3--------3-----------------|

verse B

G----------------------------------------|
D----------------------------------------|
A-------0-0---0--0-0---------------------|
E--0-3------3---------3--0-0-3-0--0-0-3--|

G--------------------------------|
D--------------------------------|
A--0-0---0--0-0---22-00-0--------|
E------3--------3---------3-3-2--|

riff 2

G--------------------------------------|
D--------------------------------------|
A--------------------------------------|
E--07-05-07-070-3-5--07-03-05-050-3-5--|

riff 1

verse A

verse B

riff 2 x3

riff 3

G--------------------|
D--------------------|
A--------------------|
E--07-05-07-070-3-5--|

riff 1A

G----------------------|
D----------------------|
A-----------------5----|
E--07-03-05-050-3---7--|

riff 4

G----------------------------------------------------------|
D----------------------------------------------------------|
A------------------------------------------------77777777--|
E--5555555555555555--3333333333333333--11111111------------|

G--------------------|
D--------------------|
A--------------------|
E--10/3--12/5--13/7--|

guitar intro x2

intro

riff 2 x6

end on open E
Suggest correction
Give kudos to tab author, rate the tab!
1 2 3 4 5
comments
print report bad tab
guest
You may want to rate the tab now too:
select rating
Wanna post a correction for this tab? Suggest correction