Oops, an error
Loading. Please wait.

Watchin You Bass Tab

version 2
version 2

Whole song

Interactive

by KISS
392 views 6 this week
no commentswrite comment
1 2 3 4 5
please rate
add to favorites
launch autoscroll
font size
0
reset
guitar tuner
Autoscroll
slow
fast
+/-
esc
set tempo
stop
Help us to improve Ultimate-Guitar.com Take our survey!
×
Author
Difficulty
novice
guitar x1 (riff 1)

intro

G-----------------|
D-----------------|
A--------------1--|
E--3----3----3----|

riff 1 x2

G----------3----------------3------------|
D--------3----5-3---------3---5-3--------|
A----3h5----------5---3h5---------5-3-1--|
E--3----------------3--------------------|

riff 2

G----------------|
D----------------|
A----------------|
E--3\-3\-3\-3-1--|

verse A x8

G--------------|
D-5535--55353--|
A--------------|
E--------------|

verse B

G-------------------------|
D--5535--55353--55353--5--|
A-------------------------|
E-------------------------|

chorus 1

G-------------------------------------------|
D--------------------------------------333--|
A--3-3-----3-333--5-5---3-5-555-------------|
E------3-6------------5----------5--1-------|

riff 3

G---------------------------|
D------------------30-------|
A----1---1-----1------313---|
E--3---3---3-3---3--------3-|

riff 4

G--------------------------|
D------------------30------|
A----1---1-----1------313--|
E--3---3---3-3---3---------|

riff 2

verse A x8

verse B

chorus 2

G---------------------------------------------|
D--------------------------------------3------|
A--3-3-----3-333--5-5---3-5-555--0-------3----|
E------3-6------------5-------------1------1--|

riff 3 

riff 4 (last x end on open E)

guitar x1 (riff 1)

riff 1 x3

riff 2

verse a x 12

verse c

G--------------------------------|
D--5535--55353--55353--543-------|
A---------------------------531--|
E--------------------------------|

chorus 3

G--------------------------------------------|
D-------------------------------------3---3--|
A--3-3---1-3-333--55---3-5-555--0-------3----|
E------3-------------5-------------1---------|

riff 3 x2

outro

G---------------------------------|
D------------------5--3-----------|
A----1---1-----1---------5--3--1--|
E--3---3---3-3---3----------------|

end E--3--|
Suggest correction
Give kudos to tab author, rate the tab!
1 2 3 4 5
comments
print report bad tab
guest
You may want to rate the tab now too:
select rating
Please do not post tabs as comments. Select "correction" instead!