Oops, an error
Loading. Please wait.

Within Bass Tab

version 2
version 2

Whole song

by KISS
373 views 1 this week
no commentswrite comment
1 2 3 4 5
please rate
add to favorites
launch autoscroll
font size
0
reset
guitar tuner
Tab Pro tools
  • play this tab
  • loop segment
  • change instrument
  • show fretboard
  • metronome
×
Best way to learn
"Within"
Autoscroll
slow
fast
+/-
esc
set tempo
stop
Contributor
Difficulty
Tuning
novice
C G C F A D
Within
--------

song-  Within
band-  Kiss
year-  1998
album- Psycho Circus


tuning

Drop C (C G C F)


Intro

(bass gtr doesnt star until 0:42)


|--------------------|-------------------|
|--------------------|-------------------|
|--------------------|-------------------|
|0--(0)h2--2---2-0-3-|0--(0)h2--2--2-2-2-|

|--------------------|--------------------------------|
|--------------------|--------------------------------|
|--------------------|--------------------------------|
|0--(0)h2--2---2-0-3-|0--(0)h2--2--2-6-7-6--2-2-2-2-2-|

Verse 1

|--------------------|-------------------|
|--------------------|-------------------|
|--------------------|-------------------|
|0--(0)h2--2---2-0-3-|0--(0)h2--2--2-2-2-|

|--------------------|--------------------------------|
|--------------------|--------------------------------|
|--------------------|--------------------------------|
|0--(0)h2--2---2-0-3-|0--(0)h2--2--2-6-7-6--2-2-2-2-2-|


Verse 2

|--------------------|-------------------|
|--------------------|-------------------|
|--------------------|-------------------|
|0--(0)h2--2---2-0-3-|0--(0)h2--2--2-2-2-|

|--------------------|--------------------------------|
|--------------------|--------------------------------|
|--------------------|--------------------------------|
|0--(0)h2--2---2-0-3-|0--(0)h2--2--2-6-7-6--2-2-2-2-2-|

|--------------------|
|--------------------|
|--------------------|
|0-------------0-----|


Chorus 1

|----------------------|-------------------|
|----------------------|-------------------|
|----------------------|-------------------|
|0--(0)h2--2---2--0--3-|0--(0)h2--2--2-2-2-|

|----------------------|------------------------------|
|----------------------|------------------------------|
|----------------------|------------------------------|
|0--(0)h2--2---2--0--3-|0--(0)h2--2--2-6-7-6--2-2-2-2-|

|------------------|-----------------------------------|
|------------------|-----------------------------------|
|------------------|-----------------------------------|
|2--0--3--2-2-2-2--|0--(0)h2--2--2-6-7-6--2-2-2-2-2-2--|


Verse 3

|--------------------|-------------------|
|--------------------|-------------------|
|--------------------|-------------------|
|0--(0)h2--2---2-0-3-|0--(0)h2--2--2-2-2-|

|--------------------|--------------------------------|
|--------------------|--------------------------------|
|--------------------|--------------------------------|
|0--(0)h2--2---2-0-3-|0--(0)h2--2--2-6-7-6--2-2-2-2-2-|


Verse 4

|--------------------|-------------------|
|--------------------|-------------------|
|--------------------|-------------------|
|0--(0)h2--2---2-0-3-|0--(0)h2--2--2-2-2-|

|--------------------|--------------------------------|
|--------------------|--------------------------------|
|--------------------|--------------------------------|
|0--(0)h2--2---2-0-3-|0--(0)h2--2--2-6-7-6--2-2-2-2-2-|

|-------------------------------|
|-------------------------------|
|------------------------4------|
|0-------------0----------------|


Chorus 2

|----------------------|-------------------|
|----------------------|-------------------|
|----------------------|-------------------|
|0--(0)h2--2---2--0--3-|0--(0)h2--2--2-2-2-|

|----------------------|------------------------------|
|----------------------|------------------------------|
|----------------------|------------------------------|
|0--(0)h2--2---2--0--3-|0--(0)h2--2--2-6-7-6--2-2-2-2-|

|------------------|-----------------------------------|
|------------------|-----------------------------------|
|------------------|-----------------------------------|
|2--0--3--2-2-2-2--|0--(0)h2--2--2-6-7-6--2-2-2-2-2-2--|


Verse 5

|-----------------|---------------|
|-----------------|---------------|
|-----------------|---------------|
|5--7-----7--5----|5--7-----7--9--|


Interlude

|----------------------------------------|
|----------------------------------------|
|----------------------------------------|
|2--2---2-2-2---2--2---2-2-2-2-2--5-4-3--|


 /----some odd # of times-----------\

|------------------------------------|
|------------------------------------|
|------------------------------------|
|0--2-2---0--2-2---0--2-2---0--2-2---|

 /-------------------2x-----------------\

|--------------------|-------------------|
|--------------------|-------------------|
|--------------------|-------------------|
|0--(0)h2--2---2-0-3-|0--(0)h2--2--2-2-2-|


Chorus 3

|----------------------|-------------------|              ---
|----------------------|-------------------|               |
|----------------------|-------------------|               |
|0--(0)h2--2---2--0--3-|0--(0)h2--2--2-2-2-|               |
                                                           |
|----------------------|------------------------------|    |
|----------------------|------------------------------|    |
|----------------------|------------------------------|    |
|0--(0)h2--2---2--0--3-|0--(0)h2--2--2-6-7-6--2-2-2-2-|    2x
                                                           |
|------------------|-----------------------------------|   |
|------------------|-----------------------------------|   |
|------------------|-----------------------------------|   |
|2--0--3--2-2-2-2--|0--(0)h2--2--2-6-7-6--2-2-2-2-2-2--|  ---


Outro


|--------------------------------|               ---
|--------------------------------|                |
|--------------------------------|                til faded
|2--2-2-2-2--0--(0)h2--2--2-2-2-2|                out
                                                  |
|----------------------------------------------|  |
|----------------------------------------------|  |
|----------------------------------------------|  |
|0--(0)h2--2--2-2-2-2--0--(0)h2--2--2-2-6-7-6--| ---



tab legend
-----------

h     hammer on
(n)   note is still ringing
comments
We did not receive enough feedback on this tab! Please rate:
print report bad tab
1 2 3 4 5
I want to post or [tab]
guest
You may want to rate the tab now too:
select rating
Please do not post tabs as comments. Select "correction" instead!