Oops, an error
Loading. Please wait.

Baliw Bass Tab

2,557 views 6 this week
no commentswrite comment
1 2 3 4 5
please rate
add to favorites
launch autoscroll
font size
0
reset
guitar tuner
Autoscroll
slow
fast
+/-
esc
set tempo
stop
Help us to improve Ultimate-Guitar.com Take our survey!
×
Author
Difficulty
intermediate
Tuning: Standard
Intro
G|-----------------------------------------------------------------------|
D|-----------------------------------------------------------------------|
A|---------------5-0-55-5--7-0-77-5--3-3-0-33-3/-------------------------|
E|-12/2-3-0-33-3---------------------------------------------------------|
Verse(2x)
G|-----------------------------------------------------------------------|
D|-----------------------------------------------------------------------|
A|-------------5-0-55-5--7-0-77-7--3-3-0-33------------------------------|
E|--3-0-33---------------------------------------------------------------|
Refrain
G|-----------------------------------------------------------------------|
D|-----------------------------------------------------------------------|
A|-----------5-0-55-5------------5-------3-------3/----------------------|
E|-5-0-55-0-------------5-0-55-0-----------------------------------------|
Chorus
G|-----------------------------------------------------------------------|
D|---------------------7----------------------5--------------------------|
A|-------------5-0-55----5-7-0-77-5-3-3-0-33----3------------------------|
E|-3-0-3-2-3-5-----------------------------------------------------------|

(Repeat verse and refrain)

Chorus
G|-----------------------------------------------------------------------|
D|---------------------7----------------------5--------------------------|
A|-------------5-0-55----5-7-0-77-5-3-3-0-33----3------------------------|
E|-3-0-3-2-3-5-----------------------------------------------------------|
Bridge (starts at 2:13)
G|-----------------------------------------------------------------------|
D|-----------------------------------------------------------------------|
A|-------5\/--7\/--5\/-3-3-3333-3/15-15-15-15-15-15\---------------------|
E|-----------------------------------------------------------------------|

(Repeat chorus)

random repeats. the last part is too hard. XD

| /  slide up
| \  slide down
| h  hammer-on
| p  pull-off
| ~  vibrato
| +  harmonic
| x  Mute note
Suggest correction
Give kudos to tab author, rate the tab!
1 2 3 4 5
comments
print report bad tab
guest
You may want to rate the tab now too:
select rating
Please do not post tabs as comments. Select "correction" instead!