Oops, an error
Loading. Please wait.

Morning Tab

version 1
version 1

Whole song

Interactive

1,934 views 3 this week
2 commentsread comments
1 2 3 4 5
1 last vote to show rating
add to favorites
launch autoscroll
font size
0
reset
how to read this tab
guitar tuner
Autoscroll
slow
fast
+/-
esc
set tempo
stop
Help us to improve Ultimate-Guitar.com Take our survey!
×
----------------------------------------------------------------------------
                            morning - kisschasy
----------------------------------------------------------------------------
Tabbed by: daniel
Email:

wats up everyone i havent seen any tabs anywhere for this song and it is a 
great acoustic song. im only 14 so i now for a fact this tab isnt perfect 
but it is a good starting point, so feel free to play around with this tab 
because in the song there are different notes that you can hear in the 
background but i couldnt find these notes.this song is in the key of FM. 

Tuning: eadgbe (standard)

intro             x3     (play this once after end of 3x)

E|3--1--------------|--3--1--5--5/6--5--1-|
B|------3-----1--3--|---------------------|
G|---------3--------|---------------------|
D|------------------|---------------------|
A|------------------|---------------------|
E|------------------|---------------------|

verse            x3      (play this once after end of 3x)

E|3--1--------------|--3--1--5--5/6--5--1-|
B|------3-----1--3--|---------------------| play through
G|---------3--------|---------------------| until chorus
D|------------------|---------------------|
A|------------------|---------------------|
E|------------------|---------------------|

well thats all ive got but i hope you can play around with it and get it 
right and ive also written down the lyrics to it as well just if you need 
them well cya later.

               

            morning lyrics

Morning, the sun wakes and when I shake off my daze
I see the one I look up to but I never told you I do.

Sweet as a honey glaze and warm as a summer day,
You are the one I look up to but I never told you.
Your bones are sore and weak but your will is as strong as concrete.
I'd give the air I breathe for you but I never told you what I'd do.


Suggest correction
Give kudos to tab author, rate the tab!
1 2 3 4 5
comments
print report bad tab
2 comments total.
0 reply
she_luvs_tosurf 40 Mar 14, 2006 02:40 AM

non accurate, not detailed enough... pretty much shithouse!

0 reply
reidy707 10 Oct 07, 2006 02:25 AM

dont be so harsh mate...
but play it like this
E|3--1------3-1-----3-1-----|--3--1--5--5/6--5--1-|
B|-----1-3------1-3-----1-3-|---------------------|
G|--------------------------|---------------------|
D|--------------------------|---------------------|
A|--------------------------|---------------------|
E|--------------------------|---------------------|

guest
You may want to rate the tab now too:
select rating
Wanna post a correction for this tab? Suggest correction