Oops, an error
Loading. Please wait.

Opinions Wont Keep You Warm At Night Tab

version 1
version 1

Whole song

Interactive

6,873 views 3 this week
5 commentsread comments
1 2 3 4 5
x 10
add to favorites
launch autoscroll
font size
0
reset
how to read this tab
guitar tuner
Autoscroll
slow
fast
+/-
esc
set tempo
stop
Help us to improve Ultimate-Guitar.com Take our survey!
×
Author
Band: Kisschasy
Song: Opinions Won't Keep You Warm At Night

*TUNING* D# (everything down half a step )


NOTE:
This is only the rhythm part of the song. 

/opening.

D#|----0-----|
A#|----0-----|
F#|----1-----|
C#|----2-----| probably not all of the strings but
G#|----2-----| something with a d#.
D#|----0-----|

/verse.

D#|-------------------------------------------------------|
A#|-------------------------------------------------------|
F#|-------------------------------------------------------|
C#|-------------------------------------------------------|
G#|--6-6-6-6-6-6-6-6-6-6-2-2-2-2-4-4-4-4-4-4-4-4-4-4------|
D#|--4-4-4-4-4-4-4-4-4-4-0-0-0-0-2-2-2-2-2-2-2-2-2-2------|
 .........................pm...............................

/chorus.

D#|-----------------------------|
A#|-----------------------------|
F#|-------------------4--4--4---|
C#|---2---6--6--4--4--4--4--4---|
G#|---2---6--6--4--4--2--2--2---|
D#|---0---4--4--2--2------------|

OR POSSIBLY. from vid it looks like bottom one.
take a pick.

D#|------------------------------|
A#|------------------------------|
F#|-------------------4--4--4----|
C#|---2---6--6--4--4--4--4--4-4--|
G#|---2---6--6--4--4--2--2--2-4--| 
D#|---0---4--4--2--2----------2--|

/bridge.

D#|-----------------------|
A#|-----------------------|
F#|-----------------------|
C#|------6--6-2-2-4--4----| like the verse but quicker
G#|------6--6-2-2-4--4----|
D#|------4--4-0-0-2--2----|


/end.

D#|-----------------------|
A#|-----------------------|
F#|-----------------------|
C#|------6--6-2-2-4--4----|
G#|------6--6-2-2-4--4----|
D#|------4--4-0-0-2--2----|
Suggest correction
comments
print report bad tab
5 comments total. Showing first comments.
0 reply
A FiRe InSiDe 96 May 11, 2007 04:10 AM

Great tab... =D

0 reply
Ex'sAndOh's 61 May 11, 2007 04:15 AM

Penis. 5 stars.

0 reply
Kirenjob 10 Jun 09, 2007 06:03 AM

^lol.. Pretty good tab.. 5 stars.

guest
You may want to rate the tab now too:
select rating
Wanna post a correction for this tab? Suggest correction