Oops, an error
Loading. Please wait.

Opinions Wont Keep You Warm At Night tab

version 2
version 2

Whole song

Interactive

2,273 views 1 this week
no commentswrite comment
1 2 3 4 5
2 more votes to show rating
add to favorites
×
Save as Personal and add changes to this tab that will be seen only by you. Learn more ›
×
You can save this tab as Personal to edit and correct it or add notes. All changes will be seen only by you. Learn more »
launch autoscroll
font size
0
reset
how to read this tab
guitar tuner
edit
Autoscroll
slow
fast
+/-
esc
set tempo
stop
Author
Difficulty
Band: Kisschasy
Song: Opinions Won't Keep You Warm At Night

tabbed by: Daz
email: Rollover_d-j@hotmail.com


*TUNING* = STANDARD (E,B,G,D,A,E)


ITNRO (BASS CONVERTED TO GUITAR)
E|-----------------------------|
B|-----------------------------|
G|-----------------------------|
D|-----------------------------|
A|-----------------------------|
E|-5-5-5-1-1-1-1-3-3-3-1-1-1-1-|
verse.
 (BASS RIFF)
E|-----------------------------|
B|-----------------------------|
G|-----------------------------|
D|-----------------------------|
A|-----------------------------|
E|-5-5-5-1-1-1-1-3-3-3-1-1-1-1-|
PART 2 OF VERSE (COMES IN AFTER DAZ SAYS "WE DO THE THINGS YOU CANT"
E|---------------------------------------------------|
B|---------------------------------------------------|
G|---------------------------------------------------|
D|---------------------------------------------------|
A|-7-7-7-7-7-7-7-7-7-7-3-3-3-3-5-5-5-5-5-5-5-5-5-5---|
E|-5-5-5-5-5-5-5-5-5-5-1-1-1-1-3-3-3-3-3-3-3-3-3-3---|

CHORUS
E|----------------------------|
B|----------------------------|
G|---------------5-5-5--------|
D|-3-x-x-7-7-5-5-5-5-5-x------|
A|-3-x-x-7-7-5-5-3-3-3-x------|
E|-1-x-x-5-5-3-3-------x------|

BRIDGE(BASS CONVERTED TO GUITAR)
E|-----------------------------|
B|-----------------------------|
G|-----------------------------|
D|-----------------------------|
A|-----------------------------|
E|-5-5-5-1-1-1-1-3-3-3-1-1-1-1-|

THEN SAME AS VERSE 1

OUTRO

E|-----------------------|
B|-----------------------|
G|-----------------------|
D|-----------------------|
A|------7-7-3-3-5--5-----|
E|------5-5-1-1-3--3-----|

Wait while jealousy tears you apart
I'm sorry but I cannot help the way you are
That we do the things you can't

Just wait
can't you see you're being weak?
It's shallow and dark you know every time you speak
You're just lying through your teeth

Sometimes, days are like you say yet I don't agree with what you see
But I will never let the bitter things you say ever get to me

Sometimes, days are like you say yet I don't agree with what you see
But I will never let the bitter things you say ever get to me

We are everything you wish you were
But, I'm feeling kinda concerned
we're probably friends
But you hide from consequence

Yeah you must have a lot of spare time
To put down the words that you write
But no one cares
You should put your mind to rest

Sometimes, days are like you say yet I don't agree with what you see
But I will never let the bitter things you say ever get to me

Sometimes, days are like you say yet I don't agree with what you see
But I will never let the bitter things you say ever get to me

Get to me...
Get to me...

Sometimes, days are like you say yet I don't agree with what you see
But I will never let the bitter things you say ever get to me

Sometimes, days are like you say yet I don't agree with what you see
But I will never let the bitter things you say ever get to me

            
            
Suggest correction
Creating personal tab
Creating personal tab
You can edit any tab online and save it as your Personal.

You can edit, replace or remove any tab part or add personal notes – all changes will be seen only by you.

Personal tabs can be accessed anytime from any device, even offline.
Learn more »
Give kudos to tab author, rate the tab!
1 2 3 4 5
comments
print report bad tab
guest
You may want to rate the tab now too:
select rating
Wanna post a correction for this tab? Suggest correction