Oops, an error
Loading. Please wait.

Shake tab

version 2
version 2

Whole song

Interactive

7,503 views 3 this week
10 commentsread comments
1 2 3 4 5
x 10
add to favorites
×
Save as Personal and add changes to this tab that will be seen only by you. Learn more ›
×
You can save this tab as Personal to edit and correct it or add notes. All changes will be seen only by you. Learn more »
launch autoscroll
font size
0
reset
how to read this tab
guitar tuner
edit
Autoscroll
slow
fast
+/-
esc
set tempo
stop
Difficulty
intermediate
Band: Kisschasy
Album: United Paper People
Tuning: Normal
Pick colour: yellow, with funny turtle on it…

This is my first tab. Actually I lie, my first tab was the intro for ‘Ride’ by the Vines
that doesn’t count cause I only did it cause it was pissing me off that no one else was
it right. This is my FIRST!!!! tab… Really nice acoustic song, the first time I ever
it, I almost pissed myself, Darren sounded so funny at the end... ahhhhh one of the
men I have ever had the pleasure to meet. AND HE PLAYED MY GUITAR!ok I’m done now.
hi to Tash, Bj and Katya my fellow musicians!  I LOVE YOU! <3333


e|-------2-----------0-----------3----------3----|
B|-----3---3-------1---1-------3----3-----3---3--|
G|---0-------0---0-------0---0----------0--------| x6
D|-----------------------------------------------|
A|-2-----------3---------------------------------|
E|-------------------------3----------3----------|

e|------------|
B|---3--------|
G|---0--------|
D|-0----------| play at the end of 6th verse
A|---3--------|
E|------------|

e|-------0-----------------3-------0-----------------|
B|---------3------4b-----3-----------3------4b----3--|
G|-----0-------0--0----0---------0-------0--0-----0--| b= bend
D|---2-------2-----------------2-------2-------------|
A|-0-----------------3-------0--------------------3--|
E|---------------------------------------------------|


e|-------2-----------0-----------3----------3----|
B|-----3---3-------1---1-------3----3-----3---3--|
G|---0-------0---0-------0---0----------0--------| x5
D|-----------------------------------------------|
A|-2-----------3---------------------------------|
E|-------------------------3----------3----------|

"The shake before I sleep..."
e|-------3------|
B|---3-----3----|
G|---0-------0--|
D|-0------------|
A|---3----------|
E|--------------|

e|-------0-------------------------3-------0-----------------3--|
B|---------3----3-------3--------3-----------3------4b-----3----|
G|-----0------0---0---0---0----0---------0-------0--0----0------|
D|---2------2--------------------------2-------2----------------|
A|-0----------------3----------------0--------------------------|
E|---------------------------3--------------------------3-------|

You something like this for the rest of the song. I know its wrong but I got lazy and I
be bother to write it all properly.
Teach yourselves, it’s not that hard.

e|------------------------------------------------------------|
B|---3333333333---333333333--333333333---33333333-------------|
G|---0000000000---000000000--000000000---00000000-------------|
D|------------------------------------------------------------|
A|---3333333333---222222222--333333333---22222222-------------|
E|------------------------------------------------------------|

e|---3-------2---------------|
B|-----2-------3-----3-------|
G|-------0-------0---0-------|
D|---------------------------|
A|-3--------2--------3-------|
E|---------------------------|

That’s it, sort of, just listen to the song.
Thank you and goodnight!!

Tabbed by emma
If you don’t know who I am my imaginary boyfriend’s name is Sonny Moore… *cough*
Suggest correction
Creating personal tab
Creating personal tab
You can edit any tab online and save it as your Personal.

You can edit, replace or remove any tab part or add personal notes – all changes will be seen only by you.

Personal tabs can be accessed anytime from any device, even offline.
Learn more »
comments
print report bad tab
10 comments total. Showing first comments.
+1 reply
Grinspoon-Guy 41 Apr 12, 2006 02:38 AM

Sweet tab its right in my books. And no offense but u seem nuts, like only us aussies can be.

0 reply
Aspo 21 Jun 27, 2006 11:30 PM

gday sweet tab
much better than the other one here well done
lata

0 reply
T_R_A_P_T 10 Jul 19, 2006 12:43 AM

Pick colour: yellow, with funny turtle on it?


Damn, mine is pink with a fairy. =(

guest
Wanna post a correction for this tab? Suggest correction