Oops, an error
Loading. Please wait.

Spray On Pants Bass Tab

version 1
version 1

Whole song

Interactive

3,570 views 6 this week
4 commentsread comments
1 2 3 4 5
excellent!
x 3
add to favorites
launch autoscroll
font size
0
reset
guitar tuner
Tab Pro tools
  • play this tab
  • loop segment
  • change instrument
  • show fretboard
  • metronome
Autoscroll
slow
fast
+/-
esc
set tempo
stop
Contributor
Difficulty
-----------------------------------------------------------------------------
			     Spray On Pants- Kisschasy
-----------------------------------------------------------------------------

Tabbed By: Jordan Duffy 
e-mail: jordanswe@hotmail.com

Tuning: standard
This song is really easy; there are really only two parts

Chorus/Verse
G|---------------------------------------|
D|---------------------------------------|
A|---------------------------------------|
E|---6-6-6-333-4-4-4-111-----------------|
Just before the quiet bridge part
G|---------------------------------------|
D|---------------------------------------|
A|---------------------------------------|
E|----4-4-44-1-1-1-111-------------------|
Bridge is the same as Chorus and verse but there is a variation somewhere in it:
G|---------------------------------------|
D|---------------------------------------|
A|---------------------------------------|
E|---6-6-6-333-4-4-----------------------|
Ending
G|---------------------------------------|
D|---------------------------------------|
A|---------------------------------------|
E|---66-66-------------------------------|

| /  slide up
| \  slide down
| h  hammer-on
| p  pull-off
| ~  vibrato
| +  harmonic
| x  Mute note
======================================================================
comments
We did not receive enough feedback on this tab! Please rate:
print report bad tab
1 2 3 4 5
4 comments total. Showing first comments.
0 reply
Muse=Rock wrote on February 11 2008, 02:22 am

i think u have got the chorus and verse bit slightly wrong

0 reply
WillDaThrill wrote on February 16 2008, 12:30 am

try this y'all:

G|-----------------
D|-----------------
A|3-3-3----1-1-1---
D|-----444------222

GDAD tuning :D

0 reply
DontFeedPhil. wrote on May 20 2008, 05:53 am

That other one, No lol.
Good Tab.

I want to post or [tab]
guest
You may want to rate the tab now too:
select rating
Please do not post tabs as comments. Select "correction" instead!