Oops, an error
Loading. Please wait.

What We Become intro tab

version 1
version 1

Intro

Whole song

108 views 1 this week
1 commentread comment
1 2 3 4 5
3 more votes to show rating
add to favorites
×
Save as Personal and add changes to this tab that will be seen only by you. Learn more ›
×
You can save this tab as Personal to edit and correct it or add notes. All changes will be seen only by you. Learn more »
launch autoscroll
font size
0
reset
how to read this tab
guitar tuner
edit
Autoscroll
slow
fast
+/-
esc
set tempo
stop
Author
Difficulty
Intro.... Guitar 1
E|-----7-7-7----------------------------------|
B|----------8-8-8-----10-10-10-10-10-10-10-10-|
G|---------------9-9-9------------------------|
D|--------------------------------------------|
A|--------------------------------------------|
E|--------------------------------------------|
Guitar 2
E|-----------------------------------------------|
B|-----8-8-8-------------------------------------|
G|----------9-9-9--------11-11-11-11-11-11-11-11-|
D|---------------10-10-10------------------------|
A|-----------------------------------------------|
E|-----------------------------------------------|
After guitar 1 has played the intro twice guitar 2 kicks in
Harmonics
E|-----12---14B----|
B|-------12--------|
G|-----------------|
D|-----------------|
A|-----------------|
E|-----------------|
Suggest correction
Creating personal tab
Creating personal tab
You can edit any tab online and save it as your Personal.

You can edit, replace or remove any tab part or add personal notes – all changes will be seen only by you.

Personal tabs can be accessed anytime from any device, even offline.
Learn more »
Give kudos to tab author, rate the tab!
1 2 3 4 5
comments
print report bad tab
1 comment total.
0 reply
Aussiegirl36 10 Mar 25, 2007 12:54 AM

I've spent ages looking for tab of this song, but I've given up. I'm trying to do it myself using my sucktacualr tabbing skills.

Guitar 1 is correct but Guitar 2 isn't. It goes like this:
Guitar 2
E|-------------------------------------------------------|
B|-------------------------------------------------------|
G|----------9-9-9----------------11-11-11-11-11-11-11-11-|
D|----------------9-9-9-10-10-10-------------------------|
A|-------------------------------------------------------|
E|-------------------------------------------------------|
It got rejected though...:(

guest
You may want to rate the tab now too:
select rating
Wanna post a correction for this tab? Suggest correction