Oops, an error
Loading. Please wait.

The Answer Is You Tab

41 views 1 this week
no commentswrite comment
1 2 3 4 5
please rate
add to favorites
launch autoscroll
font size
0
reset
how to read this tab
guitar tuner
Autoscroll
slow
fast
+/-
esc
set tempo
stop
Help us to improve Ultimate-Guitar.com Take our survey!
×
Author
Difficulty
intermediate
Song: The Answer Is You
Artist: Kissing Promotion Freak

  Intro:

     Lead Guitar:
                                                      x2
e||-0-----------|-0-----------|-3-----------|-0-----------|
B||-1-----------|-1-----------|-3-----------|-1-----------|
G||-2-----------|-0-----------|-0-----------|-2-----------|
D||-2-----------|-2-----------|-0-----------|-2-----------|
A||-0-----------|-3-----------|-2-----------|-0-----------|
E||-------------|-------------|-3-----------|-------------|

     Rhythm Guitar:
                                                      x2
e||-----0---0---|-----0---0---|-----3---3---|-----0---0---|
B||-----------1-|-----------1-|-----------3-|-----------1-|
G||---2---2-----|---0---0-----|---0---0-----|---2---2-----|
D||-------------|-------------|-------------|-------------|
A||-0-----------|-3-----------|-------------|-0-----------|
E||-------------|-------------|-3-----------|-------------|

  Bridge:

     Lead Guitar:
           |-3-|                    x4
e|-0---0-0-0---0-0---|-0---0-0-3---3-3-|
B|-1---1-1-3p1-0-1---|-1---1-1-3---3-3-|
G|-2---2-2-2---2-2---|-0---0-0-0---0-0-|
D|-2---2-2-2---2-2---|-2---2-2-0---0-0-|
A|-0---0-0-0---0-0---|-3---3-3-2---2-2-|
E|-------------------|---------3---3-3-|

     Rhythm Guitar:
                                  x4
e|-0---0-0-0---0-0-|-0---0-0-3---3-3-|
B|-1---1-1-1---1-1-|-1---1-1-3---3-3-|
G|-2---2-2-2---2-2-|-0---0-0-0---0-0-|
D|-2---2-2-2---2-2-|-2---2-2-0---0-0-|
A|-0---0-0-0---0-0-|-3---3-3-2---2-2-|
E|-----------------|---------3---3-3-|

  Chorus:

     Both Guitars:
                                      x2
e|-0-------|-0-------|-3-------|-0-------|
B|-1-------|-1-------|-3-------|-1-------|
G|-2-------|-0-------|-0-------|-0-------|
D|-2-------|-2-------|-0-------|-2-------|
A|-0-------|-3-------|-2-------|-3-------|
E|---------|---------|-3-------|---------|

  Bridge:

     Lead Guitar:
           |-3-|                    x4
e|-0---0-0-0---0-0---|-0---0-0-3---3-3-|
B|-1---1-1-3p1-0-1---|-1---1-1-3---3-3-|
G|-2---2-2-2---2-2---|-0---0-0-0---0-0-|
D|-2---2-2-2---2-2---|-2---2-2-0---0-0-|
A|-0---0-0-0---0-0---|-3---3-3-2---2-2-|
E|-------------------|---------3---3-3-|

     Rhythm Guitar:
                                  x4
e|-0---0-0-0---0-0-|-0---0-0-3---3-3-|
B|-1---1-1-1---1-1-|-1---1-1-3---3-3-|
G|-2---2-2-2---2-2-|-0---0-0-0---0-0-|
D|-2---2-2-2---2-2-|-2---2-2-0---0-0-|
A|-0---0-0-0---0-0-|-3---3-3-2---2-2-|
E|-----------------|---------3---3-3-|

  Chorus:

     Both Guitars:
                                      x2
e|-0-------|-0-------|-3-------|-0-------|
B|-1-------|-1-------|-3-------|-1-------|
G|-2-------|-0-------|-0-------|-0-------|
D|-2-------|-2-------|-0-------|-2-------|
A|-0-------|-3-------|-2-------|-3-------|
E|---------|---------|-3-------|---------|

  Riff #1:

     Both Guitars:
                                                                  x8
e|-0-------0-0-0-0-3-------3-3-3-3-|-0-------0-0-0-0-0-------0-0-0-0-|
B|-1-------1-1-1-1-3-------3-3-3-3-|-1-------1-1-1-1-1-------1-1-1-1-|
G|-0-------0-0-0-0-0-------0-0-0-0-|-2-------2-2-2-2-2-------2-2-2-2-|
D|-2-------2-2-2-2-0-------0-0-0-0-|-2-------2-2-2-2-2-------2-2-2-2-|
A|-3-------3-3-3-3-2-------2-2-2-2-|-0-------0-0-0-0-0-------0-0-0-0-|
E|-----------------3-------3-3-3-3-|---------------------------------|

  Interlude:

     Lead Guitar:
                                                      x2
e|-------------|-------------|-------------|-------------|
B|-----------1-|-----------1-|-----------3-|-----------1-|
G|---2---2-----|---0---0-----|---0---0-----|---0---0-----|
D|-------------|-------------|-------------|-------------|
A|-------------|-------------|-------------|-------------|
E|-------------|-------------|-------------|-------------|

e|-------------|-------------|
B|-----------1-|-----------0-|
G|---2---2-----|---0---0-----|
D|-------------|-------------|
A|-------------|-------------|
E|-------------|-------------|

     Rhythm Guitar:
                                                      x2
e|-----0---0---|-----0---0---|-----3---3---|-----0---0---|
B|-------------|-------------|-------------|-------------|
G|-------------|-------------|-------------|-------------|
D|-------------|-------------|-------------|-------------|
A|-0-----------|-3-----------|-------------|-3-----------|
E|-------------|-------------|-3-----------|-------------|


e|-----0---0---|-----0---0---|
B|-------------|-------------|
G|-------------|-------------|
D|-------------|-------------|
A|-0-----------|-------------|
E|-------------|-0-----------|

  Riff #2:

     Lead Guitar:
                                                                  x4
e|-0-------0-0-0-0-3-------3-3-3-3-|-0-------0-0-0-0-0-------0-0-0-0-|
B|-1-------1-1-1-1-3-------3-3-3-3-|-1-------1-1-1-1-1-------1-1-1-1-|
G|-2-------2-2-2-2-0-------0-0-0-0-|-0-------0-0-0-0-0-------0-0-0-0-|
D|-2-------2-2-2-2-0-------0-0-0-0-|-2-------2-2-2-2-2-------2-2-2-2-|
A|-0-------0-0-0-0-2-------2-2-2-2-|-3-------3-3-3-3-3-------3-3-3-3-|
E|-----------------3-------3-3-3-3-|---------------------------------|

     Rhythm Guitar:
                      x2
e|-0---|-0---|-3---|-0---|
B|-1---|-1---|-3---|-1---|
G|-2---|-0---|-0---|-0---|
D|-2---|-2---|-0---|-2---|
A|-0---|-3---|-2---|-3---|
E|-----|-----|-3---|-----|

  Ending:

     Rhythm Guitar

e|-----0-----------------||
B|----1------------------||
G|---2-------------------||
D|--2--------------------||
A|-0---------------------||
E|-----------------------||
Suggest correction
Give kudos to tab author, rate the tab!
1 2 3 4 5
comments
print report bad tab
guest
You may want to rate the tab now too:
select rating
Please do not post tabs as comments. Select "correction" instead!