Oops, an error
Loading. Please wait.

Wag Na Wag Mong Sasabihin tab

version 2
version 2

Whole song

Interactive

2,015 views 3 this week
no commentswrite comment
1 2 3 4 5
x 11
add to favorites
×
Save as Personal and add changes to this tab that will be seen only by you. Learn more ›
×
You can save this tab as Personal to edit and correct it or add notes. All changes will be seen only by you. Learn more »
launch autoscroll
font size
0
reset
how to read this tab
guitar tuner
edit
Autoscroll
slow
fast
+/-
esc
set tempo
stop
Author
-------------------------------------------------------------------------------
        Wag na Wag Mong Sasabihin- Kitchie Nadal
 -------------------------------------------------------------------------------
Tabbed by: Errol (erpol) Sarte
Email:errolsarte@yahoo.com

               Sa mga ka band mates ko kumusta mga tol!weird ba? Kc ngsend ako ng
tab?pg try ko lng pero sa totoo nakakapagod tpos magastos pero ok lng basta may ma
ishare pero kakapagod tlaga. Try nyo nlng to tpos pki rate nrin....i guess ok nman
ung gawa ko. Get a copy of the song para mas maintindihan nyo to..... GOOD LUCK na
lng sa banda nting ......... (bahala na kayong mgisip kung ano)

Tuning:EADGBE

Legend:
/  slide up
 \  slide down
 h  hammer-on
 p  pull-off
 ~  vibrato
 + half harmonic
 x  Mute note

Chords:
A major - x02220       D - x57755             Dm - x57765--|
C#m     -x46654         D/F - x87765          D/E - x77765-|

Intro: A-C#m-D-Dm (2x)
Verse: A-C#m-D-Dm (2x)
Refrain: C#m-D(2x)-Dm-(D/F-D/E-D->optional)
Chorus: A-C#m-D- D/F-D/E-D
             A-C#m-D-Dm
Bridge: C#m-D-(2x)-D/F-D/E-D


Intro: (intro chords)
    A     C#m            D          Dm
|--5-7-4----------------5-7-4--------------------|
|--------5--------------------5------------------|
|----------2/6-4\2h4--2---------2/6-4\2h4--2-----| (2x)
|------------------------------------------------|
|------------------------------------------------|
|------------------------------------------------|

[VERSE 1:](Verse chords)
May gusto ka bang sabihin?
at hindi mapakali, ni hindi makatingin
sana'y wag mo na 'tong palipasin
at subukang lutasin, sa mga sinabi mo na........

[REFRAIN:] (Refrain chords)
 C#m        D     C#m          D           Dm
|----4-5------7-5-----4-5-----7-5----------------|
|--5--------5-------5-------5--------------------|
|---6--------6-------6-------6-------------------|
|------------------------------------------------|
|-----------------------------------/8-8-7-7-5---|
|------------------------------------------------|
Ibang nararapat sa akin, na tunay kong mamahalin

[CHORUS:] (chorus chords)
    A        C#m           D        Dm
|--5-7-4----------------5-7-4--------------------|
|--------5--------------------5------------------|
|----------2/6-4\2h4--2---------2/6-4\2h4--2-----|
|------------------------------------------------|
|------------------------------------------------|
|------------------------------------------------|
oh oh oh oh wag na wag mong sasabihin na hindi mo nadama itong........
    A      C#m         D            Dm
|--5-7-4----------------5-7-4--------------------|
|--------5--------------------5------------------|
|----------2/6-4\2h4--2---------2/6-4\2h4--2-----|
|------------------------------------------------|
|------------------------------------------------|
|------------------------------------------------|
pag-ibig kong handang ibigay kahit pa kalayaan mo

[VERSE 2:](Verse chords)[listen to the music while playing this part for you to be able 
have the timing]
 +   +   +  + + + +++ ++  +++ +++ ++ + ++  +
|-------------------|---------------------------|
|-------------------|---------------------------|
|---2-2-2-2-2-2-2-2-|---2-2h4-4-4-4-4-4-4p2-2---| (2X)
|-------------------|---------------------------|
|-------------------|---------------------------|
|-------------------|---------------------------|
hindi ko man inaakala, na ako'y isang bituin na walang sasambahin
hindi ko man ito ipakita, abot langit ang daing, sa mga sinabi mo na

(repeat refrain and chorus)

 [BRIDGE:] (bridge chords)

At sa gabi, sinong duduyan sayo?
At sa umaga, ang hangin na hahaplos sayo

[CHORUS:] (chorus chords)
  A           C#m        D         Dm
|--5-7-4----------------5-7-4--------------------|
|--------5--------------------5------------------|
|----------2/6-4\2h4--2---------2/6-4\2h4--2-----|
|------------------------------------------------|
|------------------------------------------------|
|------------------------------------------------|
oh oh oh oh wag na wag mong sasabihin na hindi mo nadama itong........
         A               C#m                D                 Dm
|--5-7-4----------------5-7-4--------------------|
|--------5--------------------5------------------|
|----------2/6-4\2h4--2---------2/6-4\2h4--2-----|
|------------------------------------------------|
|------------------------------------------------|
|------------------------------------------------|
pag-ibig kong handang ibigay kahit pa kalayaan mo

[CHORUS:] (chorus chords)
    A        C#m         D         Dm
|--5-7-4----------------5-7-4--------------------|
|--------5--------------------5------------------|
|----------2/6-4\2h4--2---------2/6-4\2h4--2-----|
|------------------------------------------------|
|------------------------------------------------|
|------------------------------------------------|
oh oh oh oh wag na wag mong sasabihin na hindi mo nadama itong........
      A       C#m          D      Dm
|-7--5--7--5--7-7-5--7-5-7--9.........--10......---------| (NOTE: THE RIFFS IN
|--5--5--5--5-------5-5-5—-10.........--10......---------| THIS PART ARE NOW
|---------------------------9.........--9......----------|   DIFFERENT FROM THE
|--------------------------------------------------------|   PREVIOUS CHORUS'
|--------------------------------------------------------|     RIFF)
|--------------------------------------------------------|
pag-ibig kong handang ibigay kahit pa kalayaan mo
   A         C#m           D      Dm
|-7--5--7--5--7-7-5--7-5-7--9.........--10......---------|
|--5--5--5--5-------5-5-5—-10.........--10......---------|
|---------------------------9.........--9......----------|
|--------------------------------------------------------|
|--------------------------------------------------------|
|--------------------------------------------------------|
  oh oh oh oh......          Oh oh oh .........

[CHORUS:] (chorus chords)
   A          C#m       D     Dm
|-7--5--7--5--7-7-5--7-5-7--9.........--10......---------|
|--5--5--5--5-------5-5-5—-10.........--10......---------|
|---------------------------9.........--9......----------|
|--------------------------------------------------------|
|--------------------------------------------------------|
|--------------------------------------------------------|
oh oh oh oh wag na wag mong sasabihin na hindi mo nadama itong........

  A           C#m           D    Dm
|-7--5--7--5--7-7-5--7-5-7--9.........--10......-----------|
|--5--5--5--5-------5-5-5—-10.........--10......-----------|
|---------------------------9.........--9......------------|
|----------------------------------------------------------|
|-----------------------------------------4--5-------------|
|-------------------------------------/5-------------------|
pag-ibig kong handang ibigay kahit pa kalayaan mo.

    **tapos na! rate nyo gawa ko!if you have any comment/suggestions/violent reactions just email me.ok.

            
            
Suggest correction
Creating personal tab
Creating personal tab
You can edit any tab online and save it as your Personal.

You can edit, replace or remove any tab part or add personal notes – all changes will be seen only by you.

Personal tabs can be accessed anytime from any device, even offline.
Learn more »
comments
print report bad tab
guest
You may want to rate the tab now too:
select rating
Wanna post a correction for this tab? Suggest correction