Oops, an error
Loading. Please wait.

Brackish Tab

version 4
version 4

Whole song

Interactive

41 views 1 this week
no commentswrite comment
1 2 3 4 5
please rate
add to favorites
launch autoscroll
font size
0
reset
how to read this tab
guitar tuner
Tab Pro tools
  • play this tab
  • loop segment
  • change instrument
  • show fretboard
  • metronome
×
Best way to learn
"Brackish"
Autoscroll
slow
fast
+/-
esc
set tempo
stop
Contributor
Difficulty
advanced
/---------------------------------------------------------------------------
/ The following is the author's own interpretation of the song, to be used -
/ for studying or private use only, removal of any part of this ten line   -
/ header is illegal!!!  Removal of the transcribers name or anything       -
/ relevant to the transcriber is also illegal, as so is the removal of the -
/ place inwhich the tab was downloaded. Publishing as well as printing of  -
/ the tab is illegal without permission of the transcriber and copyright   -
/ owner of the song. Failure to apply to these laws result will in legal   -
/ action from the appropriate parties.                                     -
/---------------------------------------------------------------------------

downloaded from Displacer's Tablature Site at
        http://www.dsrmusic.com/metaltab
join the death/black tab emailing list by filling out the free
subscription form at http://www.dsrmusic.com/metaltab/join.htm

/---------------------------------------------------------------------------/
/    The following is the author's own interpretation of the song, to be    /
/                     used for private use and studying                     /
/---------------------------------------------------------------------------/

                        KITTIE - CHARLOTTE
                        From the Album SPIT
                        Copyright 2000 ARTEMIS RECORDS
                        Version 1.0 - OCTOBER 2001

Transcribed by: death8699

For Questions, Comments, Newest Version, or Corrections contact
 death8699: at archenemies@aol.com

Check Out Death Warp, With More Transcriptions On It:
 http://www.sorrowsend.com/DeathWarp

Tablature Notation
------------------
.  - palm mute                  /  - slide up to
\  - slide down to              ~  - vibrato             
h  - hammer on                  b  - bend 
p  - pull off                   Suffixes for bend    
ph - pinch harmonic             f - full bend    h - half bend
*  - see comment                r - release      t - tap bend
X  - percussion mute            ~ - vibrato bend
@  - slight palm mute           () - ghost note, sustained note

Tune Gtr down 1 step then Drop D (C,G,C,F,A,D)

CHARLOTTE

Riff A                   4tx
|---------------------------|
|---------------------------|
|---------------------------|
|---------------------------|
|-4-4-4-4------4-4-4-4------|
|-4-4-4-4------4-4-4-4------|
  . . . .      . . . .

Riff B                                                          4tx
|------------------------------------------------------------------|
|------------------------------------------------------------------|
|------------------------------------------------------------------|
|-0--4-4-4-4-x-x-x-x-0-4-4-4-4-x-x-x-x-0-4-4-4-4-x-x-0-4--4--4--4--|
|-0--4-4-4-4-x-x-x-x-0-4-4-4-4-x-x-x-x-0-4-4-4-4-x-x-0-4--4--4--4--|
|-0--4-4-4-4-x-x-x-x-0-4-4-4-4-x-x-x-x-0-4-4-4-4-x-x-0-4--4--4--4--|


Riff C
|-------------------------------------------------------------------|
|-------------------------------------------------------------------|
|-------------------------------------------------------------------|
|-------------------------------------------------------------------|
|-------------------------------------------------------------------|
|-0-3-2-1-2---1-2---1-2---1-2-3-3---3p2-1-2---1-2---1-2---1-2-3-3---|


Riff C.1                                                         4tx
|-------------------------------------------------------------------|
|-------------------------------------------------------------------|
|-------------------------------------------------------------------|
|-3\2-1-2---1-2---1-2---1-2-3-3-3---3\2-1-2---1-2---1-2---1-2-3-3-3-|
|-3\2-1-2---1-2---1-2---1-2-3-3-3---3\2-1-2---1-2---1-2---1-2-3-3-3-|
|-3\2-1-2---1-2---1-2---1-2-3-3-3---3\2-1-2---1-2---1-2---1-2-3-3-3-|


Riff B 4tx
Riff C 1tx
Riff C.1 4tx


Next
|-----------------|
|-----------------|
|-----------------|
|-0------(0)------|
|-0------(0)------|
|-0------(0)------|


Guitars out


Riff D
|-------------------------------------------------|
|-------------------------------------------------|
|-------------------------------------------------|
|-------------------------------------------------|
|-5---5-5-55---5---55-5---5---5-5-55---5-5-55-5---|
|-5---5-5-55---5---55-5---5---5-5-55---5-5-55-5---|
|
|                                     4tx
|----------------------------------------|
|----------------------------------------|
|-7---7-7-7/11---11-11-11-11-11/12-12-12-|
|----------------------------------------|
|-5---5-5-5/9----9--9--9--9---9/10-10-10-|
|----------------------------------------|


Free Time


Riff E                                                          2tx
|------------------------------------------------------------------|
|-10--11---10--11------------------10--11---10--11-----------------|
|------------------------------------------------------------------|
|-7---8----7---8-------------------7---8----7---8------------------|
|------------------0-0-1-1-01-0-0-------------------0-0-1-1-01-0-0-|
|------------------0-0-1-1-01-0-0-------------------0-0-1-1-01-0-0-|
                   . . . . .. . .                   . . . . .. . .

End.


Check Out Death Warp, With More Transcriptions On It:
 http://www.sorrowsend.com/DeathWarp
comments
We did not receive enough feedback on this tab! Please rate:
print report bad tab
1 2 3 4 5
I want to post or [tab]
guest
You may want to rate the tab now too:
select rating
Please do not post tabs as comments. Select "correction" instead!