Oops, an error
Loading. Please wait.

Immortal tab

version 5
version 5

Whole song

Interactive

by Kittie
702 views 1 this week
1 commentread comment
1 2 3 4 5
x 4
add to favorites
×
Save as Personal and add changes to this tab that will be seen only by you. Learn more ›
×
You can save this tab as Personal to edit and correct it or add notes. All changes will be seen only by you. Learn more »
launch autoscroll
font size
0
reset
how to read this tab
guitar tuner
edit
Autoscroll
slow
fast
+/-
esc
set tempo
stop
IMMORTAL (Tablature by Jon6810)
By KITTIE

DROP-C
SLIGHT CHORUS EFFECT ON CLEAN CHANNEL (except during the "Play 8x" riff)


D ----|------------------------------------------------|
A ----|------------------------------------------------|    Play 4x
F ----|------------------5---4---4---------------------|
C ----|--4---5---5---4---------------4-----------------|    (first open note:
G --0-|2---2---2---2---0---0---2---2-------------------|    play ONLY on the
C ----|------------------------------------------------|    first time thru)


D -----------------------------------------------------|
A -----------------------------------------------------|    Play 4x
F -----------------------------------------------------|
C --0--0-4-4--3--0-2----2---2--------------------------|
G --0--0-4-4--3--0-2-----------------------------------|
C --0--0-4-4--3--0-2--2---2----------------------------|


D -----------------------------------------------------|
A -----------------------------------------------------|    Play 4x
F --------------------5---4---4------------------------|
C ----4---5---5---4---------------4--------------------|
G --2---2---2---2---0---0---2---2----------------------|
C -----------------------------------------------------|


D -----------------------------------------------------|
A -----------------------------------------------------|    Play 4x
F -----------------------------------------------------|
C --0--0-4-4--3--0-2----2---2--------------------------|
G --0--0-4-4--3--0-2-----------------------------------|
C --0--0-4-4--3--0-2--2---2----------------------------|


D -----------------------------------------------------|    Play 4x
A -----------------------------------------------------|
F ----7--7-7--7--7-7--7--7-7(s)10--10--10--10--10------|
C ---7--7-7--7--7-7--7--7-7------10--10--10--10--------|
G --5--6----5--6----5--6-------------------------------|
C -----------------------------------------------------|

D -----------------------------------------------------|
A -----------------------------------------------------|    Play 8x
F -----------------------------------------------------|    (HEAVY DISTORTION)
C --0--3-0-4-3-0-3-4-0-3-2-0-0-------------------------|
G --0--3-0-4-3-0-3-4-0-3-2-0-0-------------------------|
C --0--3-0-4-3-0-3-4-0-3-2-0-0-------------------------|


D -----------------------------------------------------|
A -----------------------------------------------------|    Play 1x
F -----------------------------------------------------|    (gradually slow
C --------------------5---5---4------------------------|    tempo)
G ----4---4---5---4-----------4------------------------|
C --2---2---2---2---2---2---2-2------------------------|

            
            
Suggest correction
Creating personal tab
Creating personal tab
You can edit any tab online and save it as your Personal.

You can edit, replace or remove any tab part or add personal notes – all changes will be seen only by you.

Personal tabs can be accessed anytime from any device, even offline.
Learn more »
comments
print report bad tab
1 comment total.
0 reply
boblentil 300 Feb 17, 2013 03:32 PM

Here are corrections for the first, third, and fifth sections:

D ----|------------------------------------------------|
A ----|------------------------------------------------|
F ----|------------------5---4---4---------------------|
C ----|--4---5---5---4---------------5-----------------|
G --0-|2---2---2---2---2---2---2---2-------------------|
C ----|------------------------------------------------|

D -----------------------------------------------------|
A -----------------------------------------------------|
F --------------------5---4---4------------------------|
C ----4---5---5---4---------------5--------------------|
G --2---2---2---2---2---2---2---2----------------------|
C -----------------------------------------------------|

D -----------------------------------------------------|
A -----------------------------------------------------|
F ----7--7-7--7--7-7--7--7-7/8-8-8-8-8\7---------------|
C ---7--7-7--7--7-7--7--7-7---8-8-8-8------------------|
G --5--6----5--6----5--6-------------------------------|
C -----------------------------------------------------|

guest
You may want to rate the tab now too:
select rating
Wanna post a correction for this tab? Suggest correction