Oops, an error
Loading. Please wait.

Never Again album tab

version 1
version 1

Album

Whole song

Interactive

by Kittie
1,737 views 3 this week
no commentswrite comment
1 2 3 4 5
2 more votes to show rating
add to favorites
×
Save as Personal and add changes to this tab that will be seen only by you. Learn more ›
×
You can save this tab as Personal to edit and correct it or add notes. All changes will be seen only by you. Learn more »
launch autoscroll
font size
0
reset
how to read this tab
guitar tuner
edit
Autoscroll
slow
fast
+/-
esc
set tempo
stop
Author
Difficulty
-------------------------------------------------------------------------------
NEVER AGAIN EP - Kittie
-------------------------------------------------------------------------------
Tabbed by: Karina
Email: magickmidget@hotmail.com

Tuning: CGCFAD

::1. Never Again::
Intro
D|---------|------------------------|-|-------------------------|------------|
A|---------|------------------------|-|-------------------------|------------|
F|---------|------------------------|x|-------------------------|------------|
C|--1~--3~-|--000-000-000-----------|3|--000-000-000---333-666--|---3~--6~---|
G|--1~--3~-|--000-000-000-----------|-|--000-000-000---333-666--|---3~--6~---|
C|--1~--3~-|--000-000-000-12-10-12--|-|--000-000-000---333-666--|---3~--6~---|
PM            ... ... ...                ... ... ...

Verse
D|--------------------------------------------------------------|
A|--------------------------------------------------------------|
F|--------------------------------------------------------------|
C|-000000-00-000-000000-00-000-333333-33-333-2222222------------|
G|-000000-00-000-000000-00-000-333333-33-333-2222222------3-2-0-|
C|-000000-00-000-000000-00-000-333333-33-333-2222222------------|
PM ...... .. ... ...... .. ... ...... .. ... .......

Pre-Chorus
D|----------------------|-|---------------------------------------|
A|----------------------|-|---------------------------------------|
F|----------------------|x|---------------------------------------|
C|-000-000--------------|2|-333-333-333-333--222-222--------------|
G|-000-000------------3-|-|-333-333-333-333--222-222--8-6-5-6-5-3-|
C|-000-000--5-3-0-3-5---|-|-333-333-333-333--222-222--------------|
PM ... ...                  ... ... ... ...  ... ...

Chorus
D|---------|------------------------|-|-------------------------|
A|---------|------------------------|-|-------------------------|
F|---------|------------------------|x|-------------------------|
C|--3~--6~-|--000-000-000-----------|3|--000-000-000---333-666--|
G|--3~--6~-|--000-000-000-----------|-|--000-000-000---333-666--|
C|--3~--6~-|--000-000-000-12-10-12--|-|--000-000-000---333-666--|
PM            ... ... ...                ... ... ...

!!THIRD TIME!!
D|---------------------------------------------------------------------------|
A|---------------------------------------------------------------------------|
F|---------------------------------------------------------------------------|
C|-000-000-000------------000-000-000-----------000-000-000------------------|
G|-000-000-000------------000-000-000-----------000-000-000------------------|
C|-000-000-000-12-10-12---000-000-000-10-12-10--000-000-000-12-10-12—--etc.--|
PM ... ... ...            ... ... ...           ... ... ...

D|---------|
A|---------|
F|---------|
C|-3~--6~--|
G|-3~--6~--|
C|-3~--6~--|

Verse
D|--------------------------------------------------------------|
A|--------------------------------------------------------------|
F|--------------------------------------------------------------|
C|-000000-00-000-000000-00-000-333333-33-333-2222222------------|
G|-000000-00-000-000000-00-000-333333-33-333-2222222------3-2-0-|
C|-000000-00-000-000000-00-000-333333-33-333-2222222------------|
PM ...... .. ... ...... .. ... ...... .. ... .......

Pre-Chorus (leeeettle unsure..)
D|----------------------|-|---------------------------------------|
A|----------------------|-|---------------------------------------|
F|----------------------|x|---------------------------------------|
C|-000-000--------------|2|-333-333-333-333--222-222--------------|
G|-000-000------------3-|-|-333-333-333-333--222-222--8-6-5-6-5-3-|
C|-000-000--5-3-0-3-5---|-|-333-333-333-333--222-222--------------|
PM ... ...                  ... ... ... ...  ... ...

Chorus
D|---------|------------------------|-|-------------------------|
A|---------|------------------------|-|-------------------------|
F|---------|------------------------|x|-------------------------|
C|--3~--6~-|--000-000-000-----------|3|--000-000-000---333-666--|
G|--3~--6~-|--000-000-000-----------|-|--000-000-000---333-666--|
C|--3~--6~-|--000-000-000-12-10-12--|-|--000-000-000---333-666--|
PM            ... ... ...                ... ... ...

!!THIRD TIME!!
D|---------------------------------------------------------------------------|
A|---------------------------------------------------------------------------|
F|---------------------------------------------------------------------------|
C|-000-000-000------------000-000-000-----------000-000-000------------------|
G|-000-000-000------------000-000-000-----------000-000-000------------------|
C|-000-000-000-12-10-12---000-000-000-10-12-10--000-000-000-12-10-12—--etc.--|
PM ... ... ...            ... ... ...           ... ... ...

D|---------|
A|---------|
F|---------|
C|-3~--6~--|
G|-3~--6~--|
C|-3~--6~--|

Bridge
D|------------------------------------------------------|:|
A|------------------------------------------------------|:|
F|------------------------------------------------------|:|
C|-0-------------------------0--------------------------|:|
G|-0-------------5--3--6--5--0-------------5--3---------|:|
C|-0--0--3--5--0-------------0--0--3--5--3------5--3--0-|:|

D|--------------------------------------------------------------------|
A|--------------------------------------------------------------------|
F|--------------------------------------------------------------------|
C|-000-000--00-000-000-000--00-000-000-000--00-000-000-000--333--666--|
G|-000-000--00-000-000-000--00-000-000-000--00-000-000-000--333--666--|
C|-000-000--00-000-000-000--00-000-000-000--00-000-000-000--333--666--|
PM ... ...  .. ... ... ...  .. ... ... ...  .. ... ... ... 

Solo (guitar two - guitar One plays chorus)
D|--10--8--7--5-5-5-3---13--10-10--13--13--10--10--------|
A|--------------------3----------------------------8--3--|
F|-------------------------------------------------------|
C|-------------------------------------------------------|
G|-------------------------------------------------------|
C|-------------------------------------------------------|

D|---------------8-----------------10--15--10-10-13--7--10--9------|
A|--3--5-3--5-6-----3--5--3--5--6----------------------------------|
F|--------------------------------------------------------------7--|
C|-----------------------------------------------------------------|
G|-----------------------------------------------------------------|
C|-----------------------------------------------------------------|

Outro/Final Chorus
This continues with guitar 1, which is on the third count.

D|---------------------------------------------------------------------------|
A|---------------------------------------------------------------------------|
F|---------------------------------------------------------------------------|
C|-000-000-000------------000-000-000-----------000-000-000-------------000-000-000---333-666--|
G|-000-000-000------------000-000-000-----------000-000-000-------------000-000-000---333-666--|
C|-000-000-000-12-10-12---000-000-000-10-12-10--000-000-000-12-10-12—---000-000-000---333-666--|
PM ... ... ...            ... ... ...           ... ... ...

D|------------------------|-|-------------------------|
A|------------------------|-|-------------------------|
F|------------------------|x|-------------------------|
C|--000-000-000-----------|3|--000-000-000---333-666--|
G|--000-000-000-----------|-|--000-000-000---333-666--|
C|--000-000-000-12-10-12--|-|--000-000-000---333-666--|
PM  ... ... ...                

D|---------|
A|---------|
F|---------|
C|-3~--6~--|
G|-3~--6~--|
C|-3~--6~--|


::2. Breathe::

Intro/Verse
D|-----------------------------------------------------|---|
A|-----------------------------------------------------|---|
F|-----------------------------------------------------|---|
C|-0-0-000-000-000—-5/8--8/9--0-0-000-000-000--3-6-5-0-|-0-|
G|-0-0-000-000-000—-3/6—-6/7--0-0-000-000-000--3-6-5-0-|-0-|
C|-0-0-000-000-000------------0-0-000-000-000--3-6-5-0-|-0-|
PM     ... ... ...            . . ... ... ...

Pre-Chorus
D|-----------------------|
A|-----------------------|
F|-----------------------|
C|-0-0---3-3---2-2---0-0-|
G|-0-0---3-3---2-2---0-0-|
C|-0-0---3-3---2-2---0-0-|

Chorus (Not sure about strumming…)
D|-------------------|--------------|
A|-------------------|--------------|
F|-------------------|--------------|
C|-0--5--8--7--5—-6--|-00-0-3-6-3-0-|
G|-0--3--6--5--3--6--|-00-0-3-6-5-0-|
C|-0--------------6--|-00-0-3-6-5-0-|
PM                     .. . . . . . 

Verse
D|-----------------------------------------------------|---|
A|-----------------------------------------------------|---|
F|-----------------------------------------------------|---|
C|-0-0-000-000-000—-5/8--8/9--0-0-000-000-000--3-6-5-0-|-0-|
G|-0-0-000-000-000—-3/6—-6/7--0-0-000-000-000--3-6-5-0-|-0-|
C|-0-0-000-000-000------------0-0-000-000-000--3-6-5-0-|-0-|
PM     ... ... ...            . . ... ... ...

Pre-Chorus
D|-----------------------|
A|-----------------------|
F|-----------------------|
C|-0-0---3-3---2-2---0-0-|
G|-0-0---3-3---2-2---0-0-|
C|-0-0---3-3---2-2---0-0-|

Chorus (Not sure about strumming…)
D|-------------------|--------------|
A|-------------------|--------------|
F|-------------------|--------------|
C|-0--5--8--7--5—-6--|-00-0-3-6-3-0-|
G|-0--3--6--5--3--6--|-00-0-3-6-5-0-|
C|-0--------------6--|-00-0-3-6-5-0-|
PM                     .. . . . . . 

Bridge
D|----------------|
A|----------------|
F|----------------|
C|-0~--5~--6~--0~-|
G|-0~--3~--6~--0~-|
C|-0~------6~--0~-|

Chorus (Not sure about strumming…)
D|-------------------|--------------|
A|-------------------|--------------|
F|-------------------|--------------|
C|-0--5--8--7--5—-6--|-00-0-3-6-3-0-|
G|-0--3--6--5--3--6--|-00-0-3-6-5-0-|
C|-0--------------6--|-00-0-3-6-5-0-|
PM                     .. . . . . 



::3. This Too Shall Pass::
Verse
D|---------------------------------|---------------------------------------------|
A|---------------------------------|---------------------------------------------|
F|-4-----------------------------5-|-----7-8-7---------------7-8-7---------------|
C|-4--0-3-4-0-1-3-0-1-3-0-4-3-0—-5-|--0—-7-8-7—-0—-3-5-3—-0—-7-8-7--0-0000-0000--|
G|-2--0-3-4-0-1-3-0-1-3-0-4-3-0—-3-|--0—-5-6-5—-0-—3-5-3—-0—-5-6-5--0-0000-0000--|
C|----0-3-4-0-1-3-0-1-3-0-4-3-0----|--0---------0—-3-5-3—-0---------0-0000-0000--|
PM    . . . . . . . . . . . . .                                       .... ....

Pre-Chorus
D|------------|
A|------------|
F|------------|
C|-3333--5555-|
G|-3333--5555-|
C|-3333--5555-|

Chorus
D|-00000-------------00000------------------------------------------------------|
A|-22222-------------22222------------------------------------------------------|
F|-33333--3333-7777--33333--7777-10101010---------------------------------------|
C|-00000--3333-7777--00000--7777-10101010--333333333333-5555-33333333-5555-7777-|
G|-00000--1111-5555--00000--5555—-8-8-8-8--333333333333-5555-33333333-5555-7777-|
C|-00000-------------00000-----------------333333333333-5555-33333333-5555-7777-|

Verse
D|---------------------------------|---------------------------------------------|
A|---------------------------------|---------------------------------------------|
F|-4-----------------------------5-|-----7-8-7---------------7-8-7---------------|
C|-4--0-3-4-0-1-3-0-1-3-0-4-3-0—-5-|--0—-7-8-7—-0—-3-5-3—-0—-7-8-7--0-0000-0000--|
G|-2--0-3-4-0-1-3-0-1-3-0-4-3-0—-3-|--0—-5-6-5—-0-—3-5-3—-0—-5-6-5--0-0000-0000--|
C|----0-3-4-0-1-3-0-1-3-0-4-3-0----|--0---------0—-3-5-3—-0---------0-0000-0000--|
PM    . . . . . . . . . . . . .                                       .... ....

Pre-Chorus
D|------------|
A|------------|
F|------------|
C|-3333--5555-|
G|-3333--5555-|
C|-3333--5555-|

Chorus
D|-00000-------------00000------------------------------------------------------|
A|-22222-------------22222------------------------------------------------------|
F|-33333--3333-7777--33333--7777-10101010---------------------------------------|
C|-00000--3333-7777--00000--7777-10101010--333333333333-5555-33333333-5555-7777-|
G|-00000--1111-5555--00000--5555—-8-8-8-8--333333333333-5555-33333333-5555-7777-|
C|-00000-------------00000-----------------333333333333-5555-33333333-5555-7777-|

Bridge
D|--------------------------------------------------|------------------------------|
A|--------------------------------------------------|------------------------------|
F|-------------------7-8-7--------------------------|------------------------------|
C|-0000-0000-0000-0--7-8-7--0000-0000-0000-0--3-5-3-|--0000-0000-0000-0-3333-5555--|
G|-0000-0000-0000-0--5-6-5--0000-0000-0000-0--3-5-3-|--0000-0000-0000-0-3333-5555--|
C|-0000-0000-0000-0---------0000-0000-0000-0--3-5-3-|--0000-0000-0000-0-3333-5555--|
PM .... .... .... .         .... .... .... .           .... .... .... .

Chorus
D|-00000-------------00000------------------------------------------------------|
A|-22222-------------22222------------------------------------------------------|
F|-33333--3333-7777--33333--7777-10101010---------------------------------------|
C|-00000--3333-7777--00000--7777-10101010--333333333333-5555-33333333-5555-7777-|
G|-00000--1111-5555--00000--5555—-8-8-8-8--333333333333-5555-33333333-5555-7777-|
C|-00000-------------00000-----------------333333333333-5555-33333333-5555-7777-|


::4. Everything That Could Have Been (iTunes Bonus)::

Intro
D|----------------------------------|
A|----------------------------------|
F|----------------------------------|
C|-6-6-6--2-2-2--2-2-2--4-4-4—6-6-6-|
G|-6-6-6--2-2-2--2-2-2--4-4-4—6-6-6-|
C|-6-6-6--2-2-2--2-2-2--4-4-4—6-6-6-|

Verse (some of these are more than doubles – just listen)
D|-----------------------------------------------------------------|
A|-----------------------------------------------------------------|
F|-----------------------------------------------------------------|
C|-6-6---2-2---6-6---2-2---4-4---6-6---4-4---2-2---2-2---4-4---6-6-|
G|-6-6---2-2---6-6---2-2---4-4---6-6---4-4---2-2---2-2---4-4---6-6-|
C|-6-6---2-2---6-6---2-2---4-4---6-6---4-4---2-2---2-2---4-4---6-6-|

Chorus
D|----------------------------------|--------------|
A|----------------------------------|--------------|
F|----------------------------------|--------------|
C|-6-6-6--2-2-2--2-2-2--4-4-4—6-6-6-|--66-44-22-66-|
G|-6-6-6--2-2-2--2-2-2--4-4-4—6-6-6-|--66-44-22-66-|
C|-6-6-6--2-2-2--2-2-2--4-4-4—6-6-6-|--66-44-22-66-|

Verse (again, some more than doubles)
D|-----------------------------------------------------------------|
A|-----------------------------------------------------------------|
F|-----------------------------------------------------------------|
C|-6-6---2-2---6-6---2-2---4-4---6-6---4-4---2-2---2-2---4-4---6-6-|
G|-6-6---2-2---6-6---2-2---4-4---6-6---4-4---2-2---2-2---4-4---6-6-|
C|-6-6---2-2---6-6---2-2---4-4---6-6---4-4---2-2---2-2---4-4---6-6-|

Chorus
D|----------------------------------|--------------|
A|----------------------------------|--------------|
F|----------------------------------|--------------|
C|-6-6-6--2-2-2--2-2-2--4-4-4—6-6-6-|--66-44-22-66-|
G|-6-6-6--2-2-2--2-2-2--4-4-4—6-6-6-|--66-44-22-66-|
C|-6-6-6--2-2-2--2-2-2--4-4-4—6-6-6-|--66-44-22-66-|

Bridge
D|--------------------------------------------------------------------|
A|--------------------------------------------------------------------|
F|--------------------------------------------------------------------|
C|-222-222-222-222—-222-222-222-222—-444-444-444-444--444-444-444-444-|
G|-222-222-222-222—-222-222-222-222—-444-444-444-444--444-444-444-444-|
C|-222-222-222-222—-222-222-222-222—-444-444-444-444--444-444-444-444-|

Outro
D|----------------------------------|-------|
A|----------------------------------|-------|
F|----------------------------------|-------|
C|-6-6-6--2-2-2--2-2-2--4-4-4—6-6-6-|-6-6-6-|
G|-6-6-6--2-2-2--2-2-2--4-4-4—6-6-6-|-6-6-6-|
C|-6-6-6--2-2-2--2-2-2--4-4-4—6-6-6-|-6-6-6-|

Suggest correction
Creating personal tab
Creating personal tab
You can edit any tab online and save it as your Personal.

You can edit, replace or remove any tab part or add personal notes – all changes will be seen only by you.

Personal tabs can be accessed anytime from any device, even offline.
Learn more »
Give kudos to tab author, rate the tab!
1 2 3 4 5
comments
print report bad tab
guest
You may want to rate the tab now too:
select rating
Wanna post a correction for this tab? Suggest correction