Oops, an error
Loading. Please wait.

Paperdoll bass

version 3
version 3

Whole song

Interactive

by Kittie
775 views 1 this week
no commentswrite comment
1 2 3 4 5
1 last vote to show rating
add to favorites
×
Save as Personal and add changes to this tab that will be seen only by you. Learn more ›
×
You can save this tab as Personal to edit and correct it or add notes. All changes will be seen only by you. Learn more »
launch autoscroll
font size
0
reset
guitar tuner
edit
Autoscroll
slow
fast
+/-
esc
set tempo
stop
Bass Tab for Kittie- Paperdoll. Not the remix.
I'm not sure if the key is right, but it sounds fine on my guitar.
Also, you might have to strum the first three notes on the first part.

G|----------------||
D|-0-0-0-1-1-3~-1-||
A|----------------|| X16
E|----------------||

G|-----------|---------------||
D|-3/4-4-4-3~|-3/4-4-4---4-4-||
A|-----------|---------3-----|| X5
E|-----------|---------------||

G|----------------||
D|-0-0-0-1-1-3~-1-||
A|----------------|| X8
E|----------------||

G|-----------|---------------||
D|-3/4-4-4-3~|-3/4-4-4---4-4-||
A|-----------|---------3-----|| X5
E|-----------|---------------||

G|-------------------------------------||
D|-0--0-0-0--1-0-0-0-0-----------------||
A|---------------------1-1-1-3-3-3-3-3-|| X7
E|-------------------------------------||

G|-------------|
D|-0~--------0-|
A|----1~-3~----|
E|-------------|


            
            
Suggest correction
Creating personal tab
Creating personal tab
You can edit any tab online and save it as your Personal.

You can edit, replace or remove any tab part or add personal notes – all changes will be seen only by you.

Personal tabs can be accessed anytime from any device, even offline.
Learn more »
Give kudos to tab author, rate the tab!
1 2 3 4 5
comments
print report bad tab
guest
Wanna post a correction for this tab? Suggest correction