Oops, an error
Loading. Please wait.

Until The End album tab

version 1
version 1

Album

Whole song

Interactive

by Kittie
2,011 views 3 this week
no commentswrite comment
1 2 3 4 5
x 3
add to favorites
×
Save as Personal and add changes to this tab that will be seen only by you. Learn more ›
×
You can save this tab as Personal to edit and correct it or add notes. All changes will be seen only by you. Learn more »
launch autoscroll
font size
0
reset
how to read this tab
guitar tuner
edit
Autoscroll
slow
fast
+/-
esc
set tempo
stop
Author
Difficulty
As promised, the tabs for the entire Until the End album. Enjoy. :)
CGCFAD tuning


::1. Looks So Pretty::
<>
D|-----------------------------------------------------------------|:|
A|-----------------------------------------------------------------|:|
F|-----------------------------------------------------------------|:|
C|-0-1-6-5—-6-3-5--0-1-6-5—-6-3-5--0-1-6-5—-6-3-5--0-1-6-5—--4-4\3-|:|
G|-0-1-6-5—-4-3-3--0-1-6-5—-4-3-3--0-1-6-5—-4-3-3--0-1-6-5—--4-4\3-|:|
C|-0-1—6-5----3----0-1-6-5----3----0-1-6-5----3----0-1-6-5---4-4\3-|:|

<>
D|--------------------|-|--------------------|-|---------------------------------------|-|
A|--------------------|-|--------------------|-|---------------------------------------|-|
F|--------------------|x|--------------------|x|---------------------------------------|x|
C|--------------------|4|-2222-33-22-2222-55-|8|-2--3-2---2--6-5---2—-3-2--------------|4|
G|--------------------|-|-2222-33-22-2222-55-|-|-2--3-2---2--6-5---2—-3-2--------------|-|
C|-2222-33-22-2222-55-|-|-2222-33-22-2222-55-|-|-2--3-2---2--6-5---2-—3-2---654-654-64-|-|
PM .... .. .. .... ..     .... .. .. .... ..        . .      . .      . .   ... ... ..
Say what you will I will walk past
This plate of glass your time has past
Don’t ever say it’s my time
Burning hatred will light my way

<>
D|--------------------|-|--------------------------|-|---------|
A|--------------------|-|--------------------------|-|---------|
F|--------------------|x|--------------------------|x|---------|
C|-2222-33-22-2222-55-|4|-2222-3-2222-2222-3-5-3-0-|4|-0-1-6-5-|
G|-2222-33-22-2222-55-|-|-2222-3-2222-2222-3-5-3-0-|-|-0-1-6-5-|
C|-2222-33-22-2222-55-|-|-2222-3-2222-2222-3-5-3-0-|-|-0-1-6-5-|
PM .... .. .. .... ..     .... . .... .... . . . .
I choice not an echo
And as your world comes down
I will be there

<>
D|-----------------------------------------------------------------|:|
A|-----------------------------------------------------------------|:|
F|-----------------------------------------------------------------|:|
C|-0-1-6-5—-6-3-5--0-1-6-5—-6-3-5--0-1-6-5—-6-3-5--0-1-6-5—--4-4\3-|:|
G|-0-1-6-5—-4-3-3--0-1-6-5—-4-3-3--0-1-6-5—-4-3-3--0-1-6-5—--4-4\3-|:|
C|-0-1—6-5----3----0-1-6-5----3----0-1-6-5----3----0-1-6-5---4-4\3-|:|
PM          .  .            .   .           .   .
You look so pretty digging your grave
You look so pretty what’s left to save?

<>
D|-----------------------|-|--------------------|-|---------------------------------------|-|
A|-----------------------|-|--------------------|-|---------------------------------------|-|
F|-----------------------|x|--------------------|x|---------------------------------------|x|
C|-----------------------|4|-2222-33-22-2222-55-|4|-2--3-2---2--6-5---2—-3-2--------------|4|
G|-----------------------|-|-2222-33-22-2222-55-|-|-2--3-2---2--6-5---2—-3-2--------------|-|
C|-2222-2222-222-3-5-3-0-|-|-2222-33-22-2222-55-|-|-2--3-2---2--6-5---2-—3-2---654-654-64-|-|
PM .... .... ... . . . .     .... .. .. .... ..        . .      . .      . .   ... ... ..
Say what you will eyes to the sky
Don’t ever say it’s my time
Burning hated will light my way

<>
D|--------------------|-|--------------------------|-|---------|
A|--------------------|-|--------------------------|-|---------|
F|--------------------|x|--------------------------|x|---------|
C|-2222-33-22-2222-55-|4|-2222-3-2222-2222-3-5-3-0-|4|-0-1-6-5-|
G|-2222-33-22-2222-55-|-|-2222-3-2222-2222-3-5-3-0-|-|-0-1-6-5-|
C|-2222-33-22-2222-55-|-|-2222-3-2222-2222-3-5-3-0-|-|-0-1-6-5-|
PM .... .. .. .... ..     .... . .... .... . . . .
I choice not an echo
And as your world comes down
I will be there

<>
D|-----------------------------------------------------------------|:|
A|-----------------------------------------------------------------|:|
F|-----------------------------------------------------------------|:|
C|-0-1-6-5—-6-3-5--0-1-6-5—-6-3-5--0-1-6-5—-6-3-5--0-1-6-5—--4-4\3-|:|
G|-0-1-6-5—-4-3-3--0-1-6-5—-4-3-3--0-1-6-5—-4-3-3--0-1-6-5—--4-4\3-|:|
C|-0-1—6-5----3----0-1-6-5----3----0-1-6-5----3----0-1-6-5---4-4\3-|:|
PM          .  .            .   .           .   .
You look so pretty digging your grave
You look so pretty what’s left to save?

<>
D|---------------------------------------|
A|---------------------------------------|
F|---------------------------------------|
C|-2222-2222-2222-222-2222-2222-2222-222-|
G|-2222-2222-2222-222-2222-2222-2222-222-|
C|-2222-2222-2222-222-2222-2222-2222-222-|
PM .... .... .... ... .... .... .... ...
You look so pretty right now


::2. Career Suicide::
<>
D|---------------------------------|:|
A|---------------------------------|:|
F|---------------------------------|:|
C|-4-4-4-0-0-0--4-4-4-0-0-0—-5-5-5-|:|
G|-4-4-4-0-0-0--4-4-4-0-0-0—-5-5-5-|:|
C|-4-4-4-0-0-0--4-4-4-0-0-0—-5-5-5-|:|
PM . . . . . .  . . . . . .  . . .

<>
D|---------------------------------|-|
A|---------------------------------|-|
F|---------------------------------|x|
C|-4-4-4-0-0-0--4-4-4-0-0-0—-5-5-5-|8|
G|-4-4-4-0-0-0--4-4-4-0-0-0—-5-5-5-|-|
C|-4-4-4-0-0-0--4-4-4-0-0-0—-5-5-5-|-|
Vindiction bleeds you from every pore
Til hope runs out til my feet leave the floor
The first trace of that too familiar feeling
Smiles and daggers hearts are bleeding

<>
D|----------------------------------------|-|
A|----------------------------------------|-|
F|----------------------------------------|x|
C|-0-0-0-5---0-0-0-5---444444444-44444444-|4|
G|-0-0-0-5---0-0-0-5---444444444-44444444-|-|
C|-0-0-0-5---0-0-0-5---444444444-44444444-|-|
PM . . .     . . .     ......... ........
Don’t say no
I’ll soon know

<>
D|---------------------|-|
A|---------------------|-|
F|---------------------|x|
C|-0-2-222---5555-6666-|4|
G|-0-2-222---5555-6666-|-|
C|-0-2-222---5555-6666-|-|
Convictions see you through
Are you all you know?

<>
D|---------------------------------|:|
A|---------------------------------|:|
F|---------------------------------|:|
C|-4-4-4-0-0-0--4-4-4-0-0-0—-5-5-5-|:|
G|-4-4-4-0-0-0--4-4-4-0-0-0—-5-5-5-|:|
C|-4-4-4-0-0-0--4-4-4-0-0-0—-5-5-5-|:|
PM . . . . . .  . . . . . .  . . .

<>
D|---------------------------------|-|
A|---------------------------------|-|
F|---------------------------------|x|
C|-4-4-4-0-0-0--4-4-4-0-0-0—-5-5-5-|8|
G|-4-4-4-0-0-0--4-4-4-0-0-0—-5-5-5-|-|
C|-4-4-4-0-0-0--4-4-4-0-0-0—-5-5-5-|-|
Your faded costume is wearing thin
Was there no comfort in your own skin?
You always were a slow learner inside your ugly living lies
Tell yourself that next time you cry

<>
D|----------------------------------------|-|
A|----------------------------------------|-|
F|----------------------------------------|x|
C|-0-0-0-5---0-0-0-5---444444444-44444444-|4|
G|-0-0-0-5---0-0-0-5---444444444-44444444-|-|
C|-0-0-0-5---0-0-0-5---444444444-44444444-|-|
PM . . .     . . .     ......... ........
Don’t say no
I’ll soon know

<>
D|---------------------|-|
A|---------------------|-|
F|---------------------|x|
C|-0-2-222---5555-6666-|4|
G|-0-2-222---5555-6666-|-|
C|-0-2-222---5555-6666-|-|
Convictions see you through
Are you all you know?

<>
D|----------------------------------------|-|
A|----------------------------------------|-|
F|----------------------------------------|x|
C|-0-0-0-5---0-0-0-5---444444444-44444444-|4|
G|-0-0-0-5---0-0-0-5---444444444-44444444-|-|
C|-0-0-0-5---0-0-0-5---444444444-44444444-|-|
PM . . .     . . .     ......... ........
Don’t say no
I’ll soon know

<>
D|---------------------|-|
A|---------------------|-|
F|---------------------|x|
C|-0-2-222---5555-6666-|4|
G|-0-2-222---5555-6666-|-|
C|-0-2-222---5555-6666-|-|
Convictions see you through
Are you all you know?

<>
D|----------------------------------|-|
A|----------------------------------|-|
F|----------------------------------|x|
C|-555-555-555-555--444-444-444-444-|4|
G|-555-555-555-555--444-444-444-444-|-|
C|-555-555-555-555--444-444-444-444-|-|
Don’t go
Don’t do it


::3. Until the End::
<>
D|-----|-|----------------------------------------------------------|-|-----|
A|-----|-|----------------------------------------------------------|-|-----|
F|--5--|-|----------------------------------------------------------|x|-----|
C|--5--|-|---------------------------7-888888-888888-888888-8888887-|2|--0--|
G|--7--|-|-555555-888888-------------7-888888-888888-888888-8888887-|-|--0--|
C|-----|-|---------------888888-777777-888888-888888-888888-8888887-|-|--0--|

<>
D|----------------------------------------------------|-|-----------------------------------------------|
A|----------------------------------------------------|-|-----------------------------------------------|
F|----------------------------------------------------|x|-----------------------------------------------|
C|-333333333333333333333333333333333333-888888-444444-|3|-333333333333333333333333333333333333-888888-4-|
G|-333333333333333333333333333333333333-888888-444444-|-|-333333333333333333333333333333333333-888888-4-|
C|-333333333333333333333333333333333333-888888-444444-|-|-333333333333333333333333333333333333-888888-4-|
PM .................................... ...... ......     
...... .
Wings spread poised faintly convulsing the sky
How will I know bask now in this greying light
Search for that world something likened goodbye
How will I know that they will cry?

<>
D|----------------------------------------------------------|-|-----|
A|----------------------------------------------------------|-|-----|
F|----------------------------------------------------------|x|-----|
C|---------------------------7-888888-888888-888888-8888887-|4|--0--|
G|-555555-888888-------------7-888888-888888-888888-8888887-|-|--0--|
C|---------------888888-777777-888888-888888-888888-8888887-|-|--0--|
We were blessed (in this lifetime)
Laid to rest (all we live for)
We were blessed

<>
D|----------------------------------------------------|-|-----------------------------------------------|
A|----------------------------------------------------|-|-----------------------------------------------|
F|----------------------------------------------------|x|-----------------------------------------------|
C|-333333333333333333333333333333333333-888888-444444-|3|-333333333333333333333333333333333333-888888-4-|
G|-333333333333333333333333333333333333-888888-444444-|-|-333333333333333333333333333333333333-888888-4-|
C|-333333333333333333333333333333333333-888888-444444-|-|-333333333333333333333333333333333333-888888-4-|
PM .................................... ...... ......     
...... .
Voices ring on autumn is always at hand
Angels voices hollow and stolen so fast
I heard your voice and it spoke softly to me
We have this time and then we’re free

<>
D|----------------------------------------------------------|-|-----|
A|----------------------------------------------------------|-|-----|
F|----------------------------------------------------------|x|-----|
C|---------------------------7-888888-888888-888888-8888887-|4|--0--|
G|-555555-888888-------------7-888888-888888-888888-8888887-|-|--0--|
C|---------------888888-777777-888888-888888-888888-8888887-|-|--0--|
We were blessed (in this lifetime)
Laid to rest (all we live for)
We were blessed

<>
D|-----------------------------|-|
A|-----------------------------|-|
F|-----------------------------|x|
C|-333333-888888-777777-444444-|4|
G|-333333-888888-777777-444444-|-|
C|-333333-888888-777777-444444-|-|
PM ...... ...... ...... ......
Take me under take me under

<>
D|----------------------------------------------------------|-|-----|
A|----------------------------------------------------------|-|-----|
F|----------------------------------------------------------|x|-----|
C|---------------------------7-888888-888888-888888-8888887-|4|--0--|
G|-555555-888888-------------7-888888-888888-888888-8888887-|-|--0--|
C|---------------888888-777777-888888-888888-888888-8888887-|-|--0--|
We were blessed (in this lifetime)
Laid to rest (all we live for)
We were blessed

<>
D|----------------------------------------------------------|
A|----------------------------------------------------------|
F|----14------------14------------14------------14----------|
C|-14----14—12---14----14—12---14----14—12---14----14~~///3-|
G|----------------------------------------------------------|
C|----------------------------------------------------------|


::4. Red Flag::
<>
D|------------------------------------------------------------------------------------------------------|:|
A|------------------------------------------------------------------------------------------------------|:|
F|-------7-----5-----8-5-7--------7-----5-----3-3-5--------7-----5-----8-5-7--------7-----5-----3-3/5-5-|:|
C|-------7-----5-----8-5-7--------7-----5-----3-3-5--------7-----5-----8-5-7--------7-----5-----3-3/5-5-|:|
G|-0-0-0-5-0-0-3-0-0-6-3-5--0-0-0-5-0-0-3-0-0-1-1-3--0-0-0-5-0-0-3-0-0-6-3-5--0-0-0-5-0-0-3-0-0-1-1/3-3-|:|
C|-0-0-0---0-0---0-0--------0-0-0---0-0---0-0--------0-0-0---0-0---0-0--------0-0-0---0-0---0-0---------|:|
PM . . .   . .   . .        . . .   . .   . .        . . .   . .   . .        . . .   . .  . .
I feel trapped and it’s all in my dirty hands
These walls are closing in

<>
D|-----------------------------------------------------------------|:|
A|-----------------------------------------------------------------|:|
F|-----------------------------------------------------------------|:|
C|-5-5-5-5-5-5-5-5-3-3-3-3-3-3-3-3-6-6-6-6-6-6-6-6-5-5-5-5-0-0-0-0-|:|
G|-5-5-5-5-5-5-5-5-3-3-3-3-3-3-3-3-6-6-6-6-6-6-6-6-5-5-5-5-0-0-0-0-|:|
C|-5-5-5-5-5-5-5-5-3-3-3-3-3-3-3-3-6-6-6-6-6-6-6-6-5-5-5-5-0-0-0-0-|:|
PM                                                         . . . .
You always were so hard to please
You thought you had me on my knees

<>
D|------------------------------------------------------------------------------------------------------|:|
A|------------------------------------------------------------------------------------------------------|:|
F|-------7-----5-----8-5-7--------7-----5-----3-3-5--------7-----5-----8-5-7--------7-----5-----3-3/5-5-|:|
C|-------7-----5-----8-5-7--------7-----5-----3-3-5--------7-----5-----8-5-7--------7-----5-----3-3/5-5-|:|
G|-0-0-0-5-0-0-3-0-0-6-3-5--0-0-0-5-0-0-3-0-0-1-1-3--0-0-0-5-0-0-3-0-0-6-3-5--0-0-0-5-0-0-3-0-0-1-1/3-3-|:|
C|-0-0-0---0-0---0-0--------0-0-0---0-0---0-0--------0-0-0---0-0---0-0--------0-0-0---0-0---0-0---------|:|
PM . . .   . .   . .        . . .   . .   . .        . . .   . .   . .        . . .   . .  . .
I think I’m going under red flags for all of this
You’re cold and calculating a knife held to my lips
And this anticipating blade bleeding for a kiss

<>
D|-----------------------------------------------------------------|-|
A|-----------------------------------------------------------------|-|
F|-----------------------------------------------------------------|x|
C|-5-5-5-5-5-5-5-5-5-5-5-5-5-5-5-5-1-1-1-1-1-1-1-1-1-1-1-1-1-1-1-1-|4|
G|-5-5-5-5-5-5-5-5-5-5-5-5-5-5-5-5-1-1-1-1-1-1-1-1-1-1-1-1-1-1-1-1-|-|
C|-5-5-5-5-5-5-5-5-5-5-5-5-5-5-5-5-1-1-1-1-1-1-1-1-1-1-1-1-1-1-1-1-|-|
This is the day and you wait
Is this fate laying waste
And you’ll stay here forever
Stay here forever

<>
D|-----------------------------------------------------------------|:|
A|-----------------------------------------------------------------|:|
F|-----------------------------------------------------------------|:|
C|-5-5-5-5-5-5-5-5-3-3-3-3-3-3-3-3-6-6-6-6-6-6-6-6-5-5-5-5-0-0-0-0-|:|
G|-5-5-5-5-5-5-5-5-3-3-3-3-3-3-3-3-6-6-6-6-6-6-6-6-5-5-5-5-0-0-0-0-|:|
C|-5-5-5-5-5-5-5-5-3-3-3-3-3-3-3-3-6-6-6-6-6-6-6-6-5-5-5-5-0-0-0-0-|:|
PM                                                         . . . .
And all that’s left are scars and lies
Whispering while beauty dies

<>
D|------------------------------------------------------------------------------------------------------|:|
A|------------------------------------------------------------------------------------------------------|:|
F|-------7-----5-----8-5-7--------7-----5-----3-3-5--------7-----5-----8-5-7--------7-----5-----3-3/5-5-|:|
C|-------7-----5-----8-5-7--------7-----5-----3-3-5--------7-----5-----8-5-7--------7-----5-----3-3/5-5-|:|
G|-0-0-0-5-0-0-3-0-0-6-3-5--0-0-0-5-0-0-3-0-0-1-1-3--0-0-0-5-0-0-3-0-0-6-3-5--0-0-0-5-0-0-3-0-0-1-1/3-3-|:|
C|-0-0-0---0-0---0-0--------0-0-0---0-0---0-0--------0-0-0---0-0---0-0--------0-0-0---0-0---0-0---------|:|
PM . . .   . .   . .        . . .   . .   . .        . . .   . .   . .        . . .   . .  . .
I claw my neck for answers as last life slips away
You’re cold and calculating a knife held to my lips
And this anticipating blade bleeding for a kiss

<>
D|-----------------------------------------------------------------|-|
A|-----------------------------------------------------------------|-|
F|-----------------------------------------------------------------|x|
C|-5-5-5-5-5-5-5-5-5-5-5-5-5-5-5-5-1-1-1-1-1-1-1-1-1-1-1-1-1-1-1-1-|4|
G|-5-5-5-5-5-5-5-5-5-5-5-5-5-5-5-5-1-1-1-1-1-1-1-1-1-1-1-1-1-1-1-1-|-|
C|-5-5-5-5-5-5-5-5-5-5-5-5-5-5-5-5-1-1-1-1-1-1-1-1-1-1-1-1-1-1-1-1-|-|
This is the day and you wait
Is this fate laying waste
And you’ll stay here forever
Stay here forever

<>
D|----------|:|--------------------------------------|:|
A|----------|:|--------------------------------------|:|
F|----------|:|--------------------------------------|:|
C|-5-----1--|:|-5-555555-5555555---1-111111-1111111--|:|
G|-5-----1--|:|-5-555555-5555555---1-111111-1111111--|:|
C|-5-----1--|:|-5-555555-5555555---1-111111-1111111--|:|
PM .      .     . ...... .......   . ...... .......
To be... my darling... to be me...
Take me away...

<>
D|--------------------------------------------------|
A|--------------------------------------------------|
F|--------------------------------------------------|
C|------7-8-7h8p7------7-8-7h8p7------7-8-7h8p7-----|
G|-10*-----------8p6*-----------8/10*----------8\6--|
C|--------------------------------------------------|

<>
D|-----------------------------------------------------------------|-|
A|-----------------------------------------------------------------|-|
F|-----------------------------------------------------------------|x|
C|-5-5-5-5-5-5-5-5-5-5-5-5-5-5-5-5-1-1-1-1-1-1-1-1-1-1-1-1-1-1-1-1-|4|
G|-5-5-5-5-5-5-5-5-5-5-5-5-5-5-5-5-1-1-1-1-1-1-1-1-1-1-1-1-1-1-1-1-|-|
C|-5-5-5-5-5-5-5-5-5-5-5-5-5-5-5-5-1-1-1-1-1-1-1-1-1-1-1-1-1-1-1-1-|-|
This is the day and you wait
Is this fate laying waste
And you’ll stay here forever
Stay here forever

<>
D|-----|
A|-----|
F|-----|
C|-/5--|
G|-/5--|
C|-/5--|

::5. (Pussy) Sugar::
<>
<>
D|---------------------------------------------------------------------|-|--0~---------|
A|---------------------------------------------------------------------|-|--3~---------|
F|---------------------------------------------------------------------|x|--2~-----7~--|
C|-1-0-6-5-3-5--1-0-6-5-3-4--1-0-6-5-3-5--1-0-6-5-3-4--777-555-666-444-|8|--0~-----7~--|
G|-1-0-6-5-3-5--1-0-6-5-3-4--1-0-6-5-3-5--1-0-6-5-3-4--777-555-666-444-|-|---------5~--|
C|-1-0-6-5-3-5--1-0-6-5-3-4--1-0-6-5-3-5--1-0-6-5-3-4--777-555-666-444-|-|-------------|
PM . . . . . .  . . . . . .  . . . . . .  . . . . . .  ... ... ... ...

<>
D|---------------------------------------------------------------------|-|--0~-----0~--|
A|---------------------------------------------------------------------|-|--2~-----2~--|
F|---------------------------------------------------------------------|x|--0~-----0~--|
C|-34-00010-65--34-00010-65--34-00010-65--34-00010-65--777-555-666-444-|8|-------------|
G|-34-00010-65--34-00010-65--34-00010-65--34-00010-65--777-555-666-444-|-|-------------|
C|-34-00010-65--34-00010-65--34-00010-65--34-00010-65--777-555-666-444-|-|-------------|
PM    ... .        ... .        ... .        ... .     ... ... ... ...
I can taste the wreckage of dismembered dreams
Ghostly disciple nothing as it seems
I will follow you until this dark cloud recedes
Pain of another heal this I plead
My heart still bleeds for you

<>
<>
D|-------------------------------------|-|
A|-------------------------------------|-|
F|-------------------------------------|x|
C|-000--000-000-0--000--000--000-000-0-|4|
G|-000--000-000-0--000--000--000-000-0-|-|
C|-000--000-000-0--000--000--000-000-0-|-|
PM ...  ... ... .  ...  ...  ... ... .

<>
D|-------------------------------------|-|
A|-------------------------------------|-|
F|-------------------------------------|x|
C|-------------------------------------|7|
G|-------------------------------------|-|
C|---------00-1-4-00-3-4-00-1-4-00-2-3-|-|
Taking the long way home
My heart still bleeds for you

<>
D|-------------------------|--|-----------|-|
A|-------------------------|--|-----------|-|
F|---------3------3-3-3*---|-x|-----------|x|
C|--0-1-2--3--0-1-3-3-3*---|24|-3-3-3-4-0-|4|
G|--0-1-2--1--0-1-1-1-1*---|--|-3-3-3-4-0-|-|
C|--0-1-2-----0-1----------|--|-3-3-3-4-0-|-|
PM  . . .     . .
Solemn time stains us like the blood of all that’s unknown
This cursed you the worst give me your love
Hey, hey
*Only every second time and omit after 8th time

<>
<>
D|-------------------------------------|-|
A|-------------------------------------|-|
F|-------------------------------------|x|
C|-000--000-000-0--000--000--000-000-0-|4|
G|-000--000-000-0--000--000--000-000-0-|-|
C|-000--000-000-0--000--000--000-000-0-|-|
PM ...  ... ... .  ...  ...  ... ... .

<>
D|-------------------------------------|-|
A|-------------------------------------|-|
F|-------------------------------------|x|
C|-------------------------------------|7|
G|-------------------------------------|-|
C|---------00-1-4-00-3-4-00-1-4-00-2-3-|-|
Taking the long way home
My heart still bleeds for you

<>
D|------------------------|--|
A|------------------------|--|
F|---------3------3-3-----|-x|
C|--0-1-2--3--0-1-3-3-----|16|
G|--0-1-2--1--0-1-1-1-----|--|
C|--0-1-2-----0-1---------|--|
PM  . . .     . .
Solemn time stains us like the blood of all that’s unknown

<>
D¦--------¦---------------¦---------------------------¦-------------¦----¦
A¦--------¦---------------¦---------------------------¦-------------¦----¦
F¦--------¦---------------¦---------------------------¦-------------¦----¦
C¦--------¦---------------¦---------------------------¦-------------¦----¦
G¦-2~--1~-¦-0-0-0-0-0-0-0-¦-0-0-0--0-0--000-0-0-0-0-0-¦-0-3-5-0-4-5-¦-0~-¦
C¦-2~--1~-¦-0-0-0-0-0-0-0-¦-0-0-0--0-0--000-0-0-0-0-0-¦-0-3-5-0-4-5-¦-0~-¦
PM          . . . . . . .   . . .  . .  ... . . . . .   .     .

::6. In Dreams::
<>
D|-----------------------|
A|-----------------------|
F|-----------------------|
C|-33333333-55555555--0~-|
G|-33333333-55555555--0~-|
C|-33333333-55555555--0~-|

<>
D|----------------------------------------------------|-|-0-0-0-0-|
A|----------------------------------------------------|-|-3-3-3-3-|
F|----------------------------------------------------|x|-2-2-2-2-|
C|-33333333333333333337777-88888888888888888888888888-|4|-0-0-0-0-|
G|-33333333333333333337777-88888888888888888888888888-|-|---------|
C|-33333333333333333337777-88888888888888888888888888-|-|---------|
PM ....................... ..........................     . . . .
Every time I sleep wipe away all these tears
Living everyday in fear finding nothing but empty

<>
D|--------------------------------------------------------------------------------|
A|--------------------------------------------------------------------------------|
F|--------------------------------------------------------------------------------|
C|-3333-5555-7777-0000—-3333-5555-7777--3333-5555-7777-0000—-33333333-55555555-0~-|
G|-3333-5555-7777-0000—-3333-5555-------3333-5555-7777-0000—-33333333-55555555-0~-|
C|-3333-5555-7777-0000—-3333-5555-------3333-5555-7777-0000—-33333333-55555555-0~-|
Wide awake and dreaming is this what it seems?
Close my eyes forever I’ll wake up

<>
D|----------------------------------------------------|-|-0-0-0-0-|
A|----------------------------------------------------|-|-3-3-3-3-|
F|----------------------------------------------------|x|-2-2-2-2-|
C|-33333333333333333337777-88888888888888888888888888-|4|-0-0-0-0-|
G|-33333333333333333337777-88888888888888888888888888-|-|---------|
C|-33333333333333333337777-88888888888888888888888888-|-|---------|
PM ....................... ..........................     . . . .
Desperation strips me these last days have no been free


<>
D|--------------------------------------------------------------------------------|
A|--------------------------------------------------------------------------------|
F|--------------------------------------------------------------------------------|
C|-3333-5555-7777-0000—-3333-5555-7777--3333-5555-7777-0000—-33333333-55555555-0~-|
G|-3333-5555-7777-0000—-3333-5555-------3333-5555-7777-0000—-33333333-55555555-0~-|
C|-3333-5555-7777-0000—-3333-5555-------3333-5555-7777-0000—-33333333-55555555-0~-|
Wide awake and dreaming is this what it seems?
Close my eyes forever I’ll wake up

<>
And I see it in your eyes long gone
And I feel it in your heart long gone

<>
D|--------------------------------------------------------------------------------|:|
A|--------------------------------------------------------------------------------|:|
F|--------------------------------------------------------------------------------|:|
C|-3333-5555-7777-0000—-3333-5555-7777--3333-5555-7777-0000—-33333333-55555555-0~-|:|
G|-3333-5555-7777-0000—-3333-5555-------3333-5555-7777-0000—-33333333-55555555-0~-|:|
C|-3333-5555-7777-0000—-3333-5555-------3333-5555-7777-0000—-33333333-55555555-0~-|:|
Wide awake and dreaming is this what it seems?
Close my eyes forever I’ll wake up


::7. Into the Darkness::

<>
D|--------------------------------------------------------|
A|--------------------------------------------------------|
F|-9999999999999999--5555555555555555--77777777777777777--|
C|-9999999999999999--5555555555555555--77777777777777777--|
G|-7777777777777777--3333333333333333--55555555555555555--|
C|--------------------------------------------------------|

<>
D|--------------------------|:|
A|--------------------------|:|
F|--------------------555---|:|
C|-000-540--000-540---555---|:|
G|-000-540--000-540---333---|:|
C|-000-540--000-540---------|:|
PM ...      ...

<>
D|------------------------|:|------------------------------------------|
A|------------------------|:|------------------------------------------|
F|------------------------|:|------------------------------------------|
C|-2-22222-42-2222222222--|:|-7-77777-97-777777777--7-77777-97-77\\\\2-|
G|-2-22222-42-2222222222--|:|-7-77777-97-777777777--7-77777-97-77\\\\2-|
C|-2-22222-42-2222222222--|:|-7-77777-97-777777777--7-77777-97-77\\\\2-|
PM   .....    ..........        .....    .........    .....

D|------------------------|:|-------------------------------------------|
A|------------------------|:|-------------------------------------------|
F|------------------------|:|-------------------------------------------|
C|-2-22222-42-2222222222--|:|-7-77777-97-777777777--7--7777777777777777-|
G|-2-22222-42-2222222222--|:|-7-77777-97-777777777--7--7777777777777777-|
C|-2-22222-42-2222222222--|:|-7-77777-97-777777777--7--7777777777777777-|
PM   .....    ..........        .....    .........     .....
I feel helpless waiting could this all be the end
It’s coming down all at once am I losing you?

<>
D|-------------------|
A|-------------------|
F|------------555-777|
C|000-555-444-555-777|
G|000-555-444-333-555|
C|000-555-444--------|
No way out

<>
D|--------------------------------------------------------|-|--------------------------|:|:|
A|--------------------------------------------------------|-|--------------------------|:|:|
F|-9999999999999999--5555555555555555--77777777777777777--|-|--------------------555---|:|:|
C|-9999999999999999--5555555555555555--77777777777777777--|-|-000-540--000-540---555---|:|:|
G|-7777777777777777--3333333333333333--55555555555555555--|-|-000-540--000-540---333---|:|:|
C|--------------------------------------------------------|-|-000-540--000-540---------|:|:|
PM                                                          ...      ...
Until this all crashes down I’ll hold on (you’re going to make this work)
Into the darkness not knowing at all (you’re going to make this work)

<>
D|------------------------|:|------------------------------------------|
A|------------------------|:|------------------------------------------|
F|------------------------|:|------------------------------------------|
C|-2-22222-42-2222222222--|:|-7-77777-97-777777777--7-77777-97-77\\\\2-|
G|-2-22222-42-2222222222--|:|-7-77777-97-777777777--7-77777-97-77\\\\2-|
C|-2-22222-42-2222222222--|:|-7-77777-97-777777777--7-77777-97-77\\\\2-|
PM   .....    ..........        .....    .........    .....

D|------------------------|:|-------------------------------------------|
A|------------------------|:|-------------------------------------------|
F|------------------------|:|-------------------------------------------|
C|-2-22222-42-2222222222--|:|-7-77777-97-777777777--7--7777777777777777-|
G|-2-22222-42-2222222222--|:|-7-77777-97-777777777--7--7777777777777777-|
C|-2-22222-42-2222222222--|:|-7-77777-97-777777777--7--7777777777777777-|
PM   .....    ..........        .....    .........     .....
Are you out there waiting wondering about me?
I’ve never felt so alone as I do now

<>
D|-------------------|
A|-------------------|
F|------------555-777|
C|000-555-444-555-777|
G|000-555-444-333-555|
C|000-555-444--------|
No way out

<>
D|--------------------------------------------------------|-|--------------------------|:|:|
A|--------------------------------------------------------|-|--------------------------|:|:|
F|-9999999999999999--5555555555555555--77777777777777777--|-|--------------------555---|:|:|
C|-9999999999999999--5555555555555555--77777777777777777--|-|-000-540--000-540---555---|:|:|
G|-7777777777777777--3333333333333333--55555555555555555--|-|-000-540--000-540---333---|:|:|
C|--------------------------------------------------------|-|-000-540--000-540---------|:|:|
PM                                                          ...      ...
Until this all crashes down I’ll hold on (you’re going to make this work)
Into the darkness not knowing at all (you’re going to make this work)

<>
D|------------------------------------|
A|------------------------------------|
F|------------------------------------|
C|2~-------6-----2---5----6----2---5--|
G|2~-------6-----2---5----6----2---5--|
C|2~-------6-----2---5----6----2---5--|
PM         .     .   .    .    .   .
Hold on to me

<>
D|-----------------------------------------------------------------|
A|-----------------------------------------------------------------|
F|------------8/9\8----4--------7-------------8/9\8----4--------7--|
C|-1/6-9-8-6---------2----2/5-------6-9-8-6----------2------2/5----|
G|-----------------------------------------------------------------|
C|-----------------------------------------------------------------|

<>
D|-------------------|--------------------|
A|-------------------|--------------------|
F|------------555-777|------------777-999-|
C|000-555-444-555-777|000-777-666-777-999-|
G|000-555-444-333-555|000-777-666-555-777-|
C|000-555-444--------|000-777-666---------|

<>
D|--------------------------------------------------------------------------|-|--------------------------|:|:|
A|--------------------------------------------------------------------------|-|--------------------------|:|:|
F|-11111111111111111111111111111111--77777777777777777--999999999999999999--|-|--------------------777---|:|:|
C|-11111111111111111111111111111111--77777777777777777--999999999999999999--|-|-000-760--000-760---777---|:|:|
G|--9-9-9-9-9-9-9-9-9-9-9-9-9-9-9-9--55555555555555555--777777777777777777--|-|-000-760--000-760---555---|:|:|
C|--------------------------------------------------------------------------|-|-000-760--000-760---------|:|:|
Until this all crashes down I’ll hold on (you’re going to make this work)
Into the darkness not knowing at all (you’re going to make this work)

<>
D|------|
A|------|
F|-11~--|
C|-11~--|
G|--9~--|
C|------|


::8. Burning Bridges::
<>
D|------------------|-|
A|------------------|-|
F|------------------|x|
C|-0-3—-0-3-2-0—3-6-|8|
G|-0-3—-0-3-2-0—3-6-|-|
C|-0-3—-0-3-2-0—3-6-|-|
PM . .  . . . . . .
Hell up above your star is below

<>
D|---------------------------|:|--------------------------------------|:|:|
A|---------------------------|:|--------------------------------------|:|:|
F|---------------------------|:|--------------------------------------|:|:|
C|-00-11-00-22/33-66-55-44-0-|:|-0-3-2-4-3-0-000--0-3-2-4-3-0-000-000-|:|:|
G|-00-11-00-22/33-66-55-44-0-|:|-0-3-2-4-3-0-000--0-3-2-4-3-0-000-000-|:|:|
C|-00-11-00-22/33-66-55-44-0-|:|-0-3-2-4-3-0-000—-0-3-2-4-3-0-000-000-|:|:|
PM .. .. .. .. .. .. .. .. .                 ...              ... ...
There’s no comprehension there’s no voice of reason here
Fairy tales dividing broken wings unfold before you

<>
D|--------------------|-|
A|--------------------|-|
F|--------------------|x|
C|-0-3-2-4-3-0-000—000|4|
G|-0-3-2-4-3-0-000—000|-|
C|-0-3-2-4-3-0-000—000|-|
PM             ... ...
Take a look at what you’ve become

<>
D|------------------|-|
A|------------------|-|
F|------------------|x|
C|-4-33—-1-333-1-33-|4|
G|-4-33—-1-333-1-33-|-|
C|-4-33—-1-333-1-33-|-|
Hell above your star is below
All I see covered in dirt
Hell above your star is below
All hope dies burning bridges

<>
D|---------------------------|:|--------------------------------------|:|:|
A|---------------------------|:|--------------------------------------|:|:|
F|---------------------------|:|--------------------------------------|:|:|
C|-00-11-00-22/33-66-55-44-0-|:|-0-3-2-4-3-0-000--0-3-2-4-3-0-000-000-|:|:|
G|-00-11-00-22/33-66-55-44-0-|:|-0-3-2-4-3-0-000--0-3-2-4-3-0-000-000-|:|:|
C|-00-11-00-22/33-66-55-44-0-|:|-0-3-2-4-3-0-000—-0-3-2-4-3-0-000-000-|:|:|
PM .. .. .. .. .. .. .. .. .                 ...              ... ...
I’ll take truth before trust when your world comes crashing down
Embrace the pain in a world of lies
I’ll take truth before trust flight betrayed you clipped your own

<>
D|--------------------|-|
A|--------------------|-|
F|--------------------|x|
C|-0-3-2-4-3-0-000—000|4|
G|-0-3-2-4-3-0-000—000|-|
C|-0-3-2-4-3-0-000—000|-|
PM             ... ...
Take a look at what you’ve become

<>
D|------------------|-|
A|------------------|-|
F|------------------|x|
C|-4-33—-1-333-1-33-|8|
G|-4-33—-1-333-1-33-|-|
C|-4-33—-1-333-1-33-|-|
Hell above your star is below
All I see covered in dirt
Hell above your star is below
All hope dies burning bridges

<>
D|------------------------------------------------|-|
A|------------------------------------------------|-|
F|------------------------------------------------|x|
C|-000-0-0000-000—0-0000-000-0-0000-7-6-3-6-7-6-0-|8|
G|-000-0-0000-000—0-0000-000-0-0000-7-6-3-6-7-6-0-|-|
C|-000-0-0000-000—0-0000-000-0-0000-7-6-3-6-7-6-0-|-|
PM ... . .... ... . .... ... . ....             .
One truth for you


::9. Loveless::
<>
D|------------------|-|
A|------------------|-|
F|------------------|x|
C|-5-5-5-5-3-5-3-1--|8|
G|-5-5-5-5-3-5-3-1--|-|
C|-5-5-5-5-3-5-3-1--|-|

<>
D|----------------|-|----------------------|-|
A|----------------|-|----------------------|-|
F|----------------|x|----------------------|x|
C|-3-5-5-5-5-3-1--|4|-3-5-5-5-5-3-1—-1111-6|4|
G|-3-5-5-5-5-3-1--|-|-3-5-5-5-5-3-1—-1111-6|-|
C|-3-5-5-5-5-3-1--|-|-3-5-5-5-5-3-1—-1111-6|-|
PM                                   .... .
And so we’re here again
I try to speak beg forgiveness
This fall from grace
Is in my hands

<>
D|--------------------------------|-|
A|--------------------------------|-|
F|--------------------------------|x|
C|-5-5-5-5-3-5-3-1--5-5-5-3-5-3-1-|4|
G|-5-5-5-5-3-5-3-1--5-5-5-3-5-3-1-|-|
C|-5-5-5-5-3-5-3-1—-5-5-5-3-5-3-1-|-|
I’ll stay away I’ll stay away

<>
D|----------------|-|----------------------|-|
A|----------------|-|----------------------|-|
F|----------------|x|----------------------|x|
C|-3-5-5-5-5-3-1--|4|-3-5-5-5-5-3-1—-1111-6|4|
G|-3-5-5-5-5-3-1--|-|-3-5-5-5-5-3-1—-1111-6|-|
C|-3-5-5-5-5-3-1--|-|-3-5-5-5-5-3-1—-1111-6|-|
PM                                   .... .
You’re so forgiving
I’m so wrong
Stinging tears burn resentment
All I have is in your possession

<>
D|--------------------------------|-|
A|--------------------------------|-|
F|--------------------------------|x|
C|-5-5-5-5-3-5-3-1--5-5-5-3-5-3-1-|4|
G|-5-5-5-5-3-5-3-1--5-5-5-3-5-3-1-|-|
C|-5-5-5-5-3-5-3-1—-5-5-5-3-5-3-1-|-|
I’ll stay away I’ll stay away

<>
D|--------------------------------------|-|
A|--------------------------------------|-|
F|--------------------------------------|x|
C|-5-5-5-5--5-5-5-5----1-1-1-1--1-1-1-1-|4|
G|-5-5-5-5--5-5-5-5----1-1-1-1--1-1-1-1-|-|
C|-5-5-5-5--5-5-5-5----1-1-1-1--1-1-1-1-|-|
PM . . . .  . . . .    . . . . . . . .
And my heart does not bleed for anyone but my own
Am I loveless?

<>
D|------------------|-|
A|------------------|-|
F|------------------|x|
C|-5-5-5-5-3-5-3-1--|8|
G|-5-5-5-5-3-5-3-1--|-|
C|-5-5-5-5-3-5-3-1--|-|

::10. Daughters Down::
<>
D|-----------------------------------------|------------------------------------------------|
A|-----------------------------------------|------------------------------------------------|
F|-----------------------------------------|--------3-------------------4-------------------|
C|-2-2-2--9—-2-2-2--7--2-2-2--5--2-2-2--3--|-2-2-2—-3--2-2-2—-7--2-2-2--4--2-2-2—-3~--/9\3--|
G|-2-2-2--9—-2-2-2--7--2-2-2--5--2-2-2--3--|-2-2-2—-1--2-2-2—-7--2-2-2--2--2-2-2—-3~--/9\3--|
C|-2-2-2--9—-2-2-2--7--2-2-2--5--2-2-2--3--|-2-2-2-----2-2-2—-7--2-2-2-----2-2-2—-3~--/9\3--|
I feel helpless stare in disbelief
How can you still sleep at night?

<>
D|------------------------------|-|----------------------|-|------------------------------|-|
A|------------------------------|-|----------------------|-|------------------------------|-|
F|------------------------------|x|-------------------3--|x|------------------------------|x|
C|-2-2-2-2~--2-2-2-2~--5/7—5/7--|4|-1-1-1-1—-1-1-1-1--3--|2|-2-2-2-2~--2-2-2-2~--5/7—5/7--|4|
G|-2-2-2-2~--2-2-2-2~--5/7—5/7--|-|-1-1-1-1—-1-1-1-1—-1--|-|-2-2-2-2~--2-2-2-2~--5/7—5/7--|-|
C|-2-2-2-2~--2-2-2-2~--5/7—5/7--|-|-1-1-1-1—-1-1-1-1-----|-|-2-2-2-2~--2-2-2-2~--5/7—5/7--|-|
Hold her down with just one look just one foot she’s innocent
Put your hands around my neck stripping me of all my dignity
Vendetta black against her your bloody mouth against her
Raped of everything she owned it’s so lonely at the bottom
Putting pieces of a puzzle back together she’s forgotten

<>
D|---------------------------------|-|
A|---------------------------------|-|
F|---------------------------------|x|
C|-2-2-2-2-2-2-2-2-555-777-444-888-|4|
G|-2-2-2-2-2-2-2-2-555-777-444-888-|-|
C|-2-2-2-2-2-2-2-2-555-777-444-888-|-|
Hold your daughters down
Throw your daughters down

<>
D|------------------------------|-|----------------------|-|------------------------------|-|
A|------------------------------|-|----------------------|-|------------------------------|-|
F|------------------------------|x|-------------------3--|x|------------------------------|x|
C|-2-2-2-2~--2-2-2-2~--5/7—5/7--|5|-1-1-1-1—-1-1-1-1--3--|2|-2-2-2-2~--2-2-2-2~--5/7—5/7--|4|
G|-2-2-2-2~--2-2-2-2~--5/7—5/7--|-|-1-1-1-1—-1-1-1-1—-1--|-|-2-2-2-2~--2-2-2-2~--5/7—5/7--|-|
C|-2-2-2-2~--2-2-2-2~--5/7—5/7--|-|-1-1-1-1—-1-1-1-1-----|-|-2-2-2-2~--2-2-2-2~--5/7—5/7--|-|
Seeing beauty turn to waste let your ego be the death of me
Hands held tight behind my back stealing all that’s precious to me
Vendetta black against her your bloody mouth against her
Would you do this to your own bleeding lying to my face
I can see you’re still the same kill before and kill again

<>
D|---------------------------------|-|
A|---------------------------------|-|
F|---------------------------------|x|
C|-2-2-2-2-2-2-2-2-555-777-444-888-|4|
G|-2-2-2-2-2-2-2-2-555-777-444-888-|-|
C|-2-2-2-2-2-2-2-2-555-777-444-888-|-|
Hold your daughters down
Throw your daughters down

<>
D|--------------------------|-|--------------------------|-|-|
A|--------------------------|-|--------------------------|-|-|
F|--------------------------|-|--------------------------|-|x|
C|-2-0—0-0-2-0-0-0-555-777--|-|-2-0—0-0-2-0-0-0-444-888--|-|4|
G|-2-0—0-0-2-0-0-0-555-777--|-|-2-0—0-0-2-0-0-0-444-888--|-|-|
C|-2-0—0-0-2-0-0-0-555-777--|-|-2-0—0-0-2-0-0-0-444-888--|-|-|
I will fight to the death

<>
D|---------------------------------|
A|---------------------------------|
F|---------------------------------|
C|-2-2-2-2-2-2-2-2-555-777-444-888-|
G|-2-2-2-2-2-2-2-2-555-777-444-888-|
C|-2-2-2-2-2-2-2-2-555-777-444-888-|
Hold your daughters down
Throw your daughters down

            
            
Suggest correction
Creating personal tab
Creating personal tab
You can edit any tab online and save it as your Personal.

You can edit, replace or remove any tab part or add personal notes – all changes will be seen only by you.

Personal tabs can be accessed anytime from any device, even offline.
Learn more »
Give kudos to tab author, rate the tab!
1 2 3 4 5
comments
print report bad tab
guest
You may want to rate the tab now too:
select rating
Wanna post a correction for this tab? Suggest correction