Oops, an error
Loading. Please wait.
We have an official What I Always Wanted tab made by UG professional guitarists. Check out the tab »
×
by Kittie
3,595 views 12 this week
2 commentsread comments
1 2 3 4 5
x 7
add to favorites
×
Save as Personal and add changes to this tab that will be seen only by you. Learn more ›
×
You can save this tab as Personal to edit and correct it or add notes. All changes will be seen only by you. Learn more »
launch autoscroll
font size
0
reset
guitar tuner
edit
Autoscroll
slow
fast
+/-
esc
set tempo
stop
G/-------------------------------------------------/
D/-------------------------------------------------/
A/-------------------------------------------------/
E/-------------------------------------------------/
B/---3-3-4-4-3-1---3-3-3-4-4-3-1-------------------/
Repeat this 2 times, then when you hear Mercedes going really fast on her bass drum,repeat it twice again.

Then:
G/-------------------------------------------------/
D/-------------------------------------------------/
A/-------------------------------------------------/
E/-------------------------------------------------/
B/---4-4-4-4-4-4-4-4-0-3-3-3-3-3-3-3-3-------------/
Repeat twice

Then:
Repeat verse twice again

Then:
repeat chorus 4 times

Then:
G/-------------------------------------------------/
D/-------------------------------------------------/
A/-------------------------------------------------/
E/-------------------------------------------------/
B/---1-1-4-3-3-3-3-1-1-4-3-3-3-3-1-1-4-3-3-3-3-2-2-2-2-777-/
Repeat 4 times 

Then:
Talena has her little solo here, it's the same thing as the beginning verse. Repeat it 4 times.

Then:
Repeat chorus. 4 times. 

Then:
repeat the litte  1143333 1143333 1143333 3222 777 4 times

Then:
I really can't make out  the riff they play next. (I'm ssooooo sorry!)
I think it goes like this though.
B/---3-4-3-0-1-0- repeat it like 16 times.

Then:
repeat the little 1143333 thing then end on  B/---3---/


I hope that helped people. I love Kittie sooooo much. I'm pretty sure this is right. I'm 12 yrs. old and i've been playing since I was 10. Well, Keep Playing, and KITTIE 4 EVA
Suggest correction
Creating personal tab
Creating personal tab
You can edit any tab online and save it as your Personal.

You can edit, replace or remove any tab part or add personal notes – all changes will be seen only by you.

Personal tabs can be accessed anytime from any device, even offline.
Learn more »
comments
print report bad tab
2 comments total.
0 reply
sman19us 0 Jan 01, 2002 07:00 PM

nice job kid

0 reply
LiLTaLeNa666 30 Jul 19, 2002 08:00 PM

I totally messed up.....
Intro
C/---334401--3334401---334401---3334401
Verse
C/--444444444444444-0-3333333333333333-0-444444444444444-0-333333333333333

C/--334401--3334401--334401--3334401

C/4444444444444444-0-333333333333333-0-444444444444444-0-333333333333333-0-4444444444444444-0-333333333333333-0-44444444444444444-0-333333333333333
Chorus
C/--11433333--11433333--1143333332220777--11433333--11433333-1143333332220777

Talena's solo

C/--334401--3334401--334401--3334401
Ending
C/--34--010--34--010--34--010--34--010

order:
intro
verse
intro
verse
chorus
talena's solo
verse
chorus
ending
finish with chorus

That should make things a little better... it's a pretty easy song to figure out...

guest
Wanna post a correction for this tab? Suggest correction