Oops, an error
Loading. Please wait.

Witch Hunt tab

version 2
version 2

Whole song

by Kittie
91 views 1 this week
no commentswrite comment
1 2 3 4 5
x 3
add to favorites
×
Save as Personal and add changes to this tab that will be seen only by you. Learn more ›
×
You can save this tab as Personal to edit and correct it or add notes. All changes will be seen only by you. Learn more »
launch autoscroll
font size
0
reset
how to read this tab
guitar tuner
edit
Autoscroll
slow
fast
+/-
esc
set tempo
stop
-------------------------------------------------------------------------------
                             Witch Hunt - Kittie
-------------------------------------------------------------------------------
Tabbed by: MetalVamptress
E-mail: MetalVamptress@yahoo.com

The other tab on here needed some work. I only tabbed Morgan's guitar. Break2 might not be right. 
But everything else should be.
  

Tuning: Drop C

Intro 
D|------------------------------------------------------------|
A|------------------------------------------------------------|
F|------------------------------------------------------------| Rep
C|-22222~------------------22222~----------5h7-7--------------| 2x
G|-22222~-/8\7p5-7-p0h2-2--22222~-/8\7p5-7--------------------|
C|-22222~------------------22222~-----------------------------|


D|--------------|
A|--------------|
F|--------------|
C|--2-2-2-2-----|
G|--2-2-2-2-----|
C|--2-2-2-2-----|
    . . . . 

PreVerse
D|-------------------------------------|
A|-------------------------------------|
F|-------------------------------------| Rep
C|-2-2-2-3-2-2-2-5-2-2-2-/66\55p3------| 4x
G|-2-2-2-3-2-2-2-5-2-2-2-/66\55p3------|
C|-2-2-2-3-2-2-2-5-2-2-2-/66\55p3------|
   . . .   . . .   . . .

Verse1
D|--------------------------------------------------|
A|--------------------------------------------------|
F|--------------------------------------------------| Rep 
C|-222222-3-222222-5-222222-6\5p3-5p3---------------| 4x
G|-222222-3-222222-5-222222-6\5p3-5p3---------------|
C|-222222-3-222222-5-222222-6\5p3-5p3---------------|
   ......   ......   ......

Hook
D|----------------------------------------------------------------------------------|
A|----------------------------------------------------------------------------------|
F|----------------------------------------------------------------------------------|
C|--/8-7-5-7-5\3-0~--/8-7-5-7-5\3/8~--/8-7-5-7-5\3-0~--/8-7-5-7-5\3-0~---00-0~------|
G|--/8-7-5-7-5\3-0~--/8-7-5-7-5\3/8~--/8-7-5-7-5\3-0~--/8-7-5-7-5\3-0~---00-0~------|
C|--/8-7-5-7-5\3-0~--/8-7-5-7-5\3/8~--/8-7-5-7-5\3-0~--/8-7-5-7-5\3-0~---00-0~------|
       . . . . .        . . . . .        . . . . .        . . . . .      ..

Verse2
D|--------------------------------------------------|
A|--------------------------------------------------|
F|--------------------------------------------------| Rep 
C|-222222-3-222222-5-222222-6\5p3-5p3---------------| 4x
G|-222222-3-222222-5-222222-6\5p3-5p3---------------|
C|-222222-3-222222-5-222222-6\5p3-5p3---------------|
   ......   ......   ......

Hook
D|----------------------------------------------------------------------------|
A|----------------------------------------------------------------------------|
F|----------------------------------------------------------------------------|
C|--/8-7-5-7-5\3-0~--/8-7-5-7-5\3/8~--/8-7-5-7-5\3-0~--/8-7-5-7-5-3--1~-3~----|
G|--/8-7-5-7-5\3-0~--/8-7-5-7-5\3/8~--/8-7-5-7-5\3-0~--/8-7-5-7-5-3--1~-3~----|
C|--/8-7-5-7-5\3-0~--/8-7-5-7-5\3/8~--/8-7-5-7-5\3-0~--/8-7-5-7-5-3--1~-3~----|
       . . . . .        . . . . .        . . . . .        . . . . .  

Chorus (Rep 2x)
D|-------------------------------------------------------------|
A|-------------------------------------------------------------|
F|---------------------------------3-33333---------------------|
C|-000-000-000-000-000-000-000-000-3-33333-5-55555-7-5--0------|
G|-000-000-000-000-000-000-000-000-1-11111-5-55555-7-5--0------|
C|-000-000-000-000-000-000-000-000---------5-55555-7-5--0------|
   ... ... ... ... ... ... ... ...                 . .

D|------------------------------------------------------------|
A|------------------------------------------------------------|
F|---------------------------------3-33333--------------------|
C|-000-000-000-000-000-000-000-000-3-33333-5-55555-7----------|
G|-000-000-000-000-000-000-000-000-1-11111-5-55555-7----------|
C|-000-000-000-000-000-000-000-000---------5-55555-7----------|
   ... ... ... ... ... ... ... ...

D|-------------------------------------------------------------|
A|-------------------------------------------------------------|
F|---------------------------------3-33333---------------------|
C|-000-000-000-000-000-000-000-000-3-33333-5-55555-7-5--0------|
G|-000-000-000-000-000-000-000-000-1-11111-5-55555-7-5--0------|
C|-000-000-000-000-000-000-000-000---------5-55555-7-5--0------|
   ... ... ... ... ... ... ... ...                 . .

D|--------------------------------------------------------------|
A|--------------------------------------------------------------|
F|---------------------------------3-33333----------------------|
C|-000-000-000-000-000-000-000-000-3-33333-5-55555555-----------|
G|-000-000-000-000-000-000-000-000-1-11111-5-55555555-----------|
C|-000-000-000-000-000-000-000-000---------5-55555555-----------|
   ... ... ... ... ... ... ... ...

Break1
D|-------------------------------------------------------------------------------------|
A|-------------------------------------------------------------------------------------|
F|-------------------------------------------------------------------------------------| 
C|-22222------------------22222----------5h7-7--22222-------------------22222-7-7h9~---| 
G|-22222-/8\7p5-7-p0h2-2--22222-/8\7p5-7--------22222-/8\-7p5-7-p0h2-2--22222----------|
C|-22222------------------22222-----------------22222-------------------22222----------|
   .....                  .....                 .....                   ..... 

Verse3
D|--------------------------------------------------|
A|--------------------------------------------------|
F|--------------------------------------------------| Rep 
C|-222222-3-222222-5-222222-6\5p3-5p3---------------| 4x
G|-222222-3-222222-5-222222-6\5p3-5p3---------------|
C|-222222-3-222222-5-222222-6\5p3-5p3---------------|
   ......   ......   ......

Hook
D|----------------------------------------------------------------------------|
A|----------------------------------------------------------------------------|
F|----------------------------------------------------------------------------|
C|--/8-7-5-7-5\3-0~--/8-7-5-7-5\3/8~--/8-7-5-7-5\3-0~--/8-7-5-7-5-3--1~-3~----|
G|--/8-7-5-7-5\3-0~--/8-7-5-7-5\3/8~--/8-7-5-7-5\3-0~--/8-7-5-7-5-3--1~-3~----|
C|--/8-7-5-7-5\3-0~--/8-7-5-7-5\3/8~--/8-7-5-7-5\3-0~--/8-7-5-7-5-3--1~-3~----|
       . . . . .        . . . . .        . . . . .        . . . . .  

Chorus (Rep 2x)
D|-------------------------------------------------------------|
A|-------------------------------------------------------------|
F|---------------------------------3-33333---------------------|
C|-000-000-000-000-000-000-000-000-3-33333-5-55555-7-5--0------|
G|-000-000-000-000-000-000-000-000-1-11111-5-55555-7-5--0------|
C|-000-000-000-000-000-000-000-000---------5-55555-7-5--0------|
   ... ... ... ... ... ... ... ...                 . .

D|------------------------------------------------------------|
A|------------------------------------------------------------|
F|---------------------------------3-33333--------------------|
C|-000-000-000-000-000-000-000-000-3-33333-5-55555-7----------|
G|-000-000-000-000-000-000-000-000-1-11111-5-55555-7----------|
C|-000-000-000-000-000-000-000-000---------5-55555-7----------|
   ... ... ... ... ... ... ... ...               .

D|-------------------------------------------------------------|
A|-------------------------------------------------------------|
F|---------------------------------3-33333---------------------|
C|-000-000-000-000-000-000-000-000-3-33333-5-55555-7-5--0------|
G|-000-000-000-000-000-000-000-000-1-11111-5-55555-7-5--0------|
C|-000-000-000-000-000-000-000-000---------5-55555-7-5--0------|
   ... ... ... ... ... ... ... ...                 . .

D|--------------------------------------------------------------|
A|--------------------------------------------------------------|
F|---------------------------------3-33333----------------------|
C|-000-000-000-000-000-000-000-000-3-33333-5-55555555-----------|
G|-000-000-000-000-000-000-000-000-1-11111-5-55555555-----------|
C|-000-000-000-000-000-000-000-000---------5-55555555-----------|
   ... ... ... ... ... ... ... ...

Break2 (Rep 2x)
D|---------------------------------------------------------------------------------|
A|---------------------------------------------------------------------------------|
F|-------------------10-9p7-----------------------------8\7-5----------------------|
C|--------------------------/10p9-7p5-------------------------8-7p5---7------------|
G|-000-000-000-000---------------------8-888-888-888-88-------------8--------------|
C|-000-000-000-000---------------------8-888-888-888-88----------------------------|
   ... ... ... ...                     . ... ... ... ..

D|---------------------------------------------------|
A|---------------------------------------------------|
F|----------------------5\3-2------------------------|
C|----------------------------5p4---5--1~--3~--------|
G|-0-000-000-000-00---------------5----1~--3~--------|
C|-0-000-000-000-00--------------------1~--3~--------|
   . ... ... ... ..

Chorus (Rep 2x)
D|-------------------------------------------------------------|
A|-------------------------------------------------------------|
F|---------------------------------3-33333---------------------|
C|-000-000-000-000-000-000-000-000-3-33333-5-55555-7-5--0------|
G|-000-000-000-000-000-000-000-000-1-11111-5-55555-7-5--0------|
C|-000-000-000-000-000-000-000-000---------5-55555-7-5--0------|
   ... ... ... ... ... ... ... ...                 . .

D|------------------------------------------------------------|
A|------------------------------------------------------------|
F|---------------------------------3-33333--------------------|
C|-000-000-000-000-000-000-000-000-3-33333-5-55555-7----------|
G|-000-000-000-000-000-000-000-000-1-11111-5-55555-7----------|
C|-000-000-000-000-000-000-000-000---------5-55555-7----------|
   ... ... ... ... ... ... ... ...            .

D|-------------------------------------------------------------|
A|-------------------------------------------------------------|
F|---------------------------------3-33333---------------------|
C|-000-000-000-000-000-000-000-000-3-33333-5-55555-7-5--0------|
G|-000-000-000-000-000-000-000-000-1-11111-5-55555-7-5--0------|
C|-000-000-000-000-000-000-000-000---------5-55555-7-5--0------|
   ... ... ... ... ... ... ... ...                 . .

D|--------------------------------------------------------------|
A|--------------------------------------------------------------|
F|---------------------------------3-33333----------------------|
C|-000-000-000-000-000-000-000-000-3-33333-5-55555555-----------|
G|-000-000-000-000-000-000-000-000-1-11111-5-55555555-----------|
C|-000-000-000-000-000-000-000-000---------5-55555555-----------|
   ... ... ... ... ... ... ... ...



D|----------------|
A|----------------|
F|----------------|
C|-1~---3~--0-----|
G|-1~---3~--0-----|
C|-1~---3~--0-----|

END!


************************************

| /   slide up
| \   slide down
| h   hammer-on
| p   pull-off
| ~   vibrato
| +   harmonic
| x   Mute note
| b   Bend
| pb  Pre-bend
| br  Bend release
| pbr Pre-bend release
| brb Bend release bend

************************************

            
            
Suggest correction
Creating personal tab
Creating personal tab
You can edit any tab online and save it as your Personal.

You can edit, replace or remove any tab part or add personal notes – all changes will be seen only by you.

Personal tabs can be accessed anytime from any device, even offline.
Learn more »
Give kudos to tab author, rate the tab!
1 2 3 4 5
comments
print report bad tab
guest
You may want to rate the tab now too:
select rating
Wanna post a correction for this tab? Suggest correction