Oops, an error
Loading. Please wait.

Bride Of The Monster tab

61 views 1 this week
no commentswrite comment
1 2 3 4 5
2 more votes to show rating
add to favorites
×
Save as Personal and add changes to this tab that will be seen only by you. Learn more ›
×
You can save this tab as Personal to edit and correct it or add notes. All changes will be seen only by you. Learn more »
launch autoscroll
font size
0
reset
how to read this tab
guitar tuner
edit
Autoscroll
slow
fast
+/-
esc
set tempo
stop
[Intro]
D#|----------------------------------------------------------------------------------------|
A#|----------------------------------------------------------------------------------------|
F#|----------------------------------------------------------------------------------------|
C#|---------5----5-----------------5--5-6--6-5p0-------5----5------------------------------|
G#|---3--3-3-3-3--3/6-6-0----6--6----------------3--3-3-3-3--3/6-6-0----6--6----5--5-5-5/6-|
D#|-----------------------4-4--4--4----------------------------------4-4--4--3-3--3--3-3/4-|
  *****************************************************************************************

D#|----------------------------------------------------------------------------------------|
A#|----------------------------------------------------------------------------------------|
F#|----------------------------------------------------------------------------------------|
C#|---------5----5-----------------5--5-6--6-5p0-------5----5------------------------------|
G#|---3--3-3-3-3--3/6-6-0----6--6----------------3--3-3-3-3--3/6-6-0----6--6----5--5-5-5/6-|
D#|-----------------------4-4--4--4----------------------------------4-4--4--3-3--3--3-3/4-|
   *****************************************************************************************

[Verse]
D#|----------------------------------------------------------------------------------------|
A#|----------------------------------------------------------------------------------------|
F#|----------------------------------------------------------------------------------------|
C#|---------5----5-----------------5--5-6--6-5p0-------5----5------------------------------|
G#|---3--3-3-3-3--3/6-6-0----6--6----------------3--3-3-3-3--3/6-6-0----6--6----5--5-5-5/6-|
D#|-----------------------4-4--4--4----------------------------------4-4--4--3-3--3--3-3/4-|
  *****************************************************************************************

D#|----------------------------------------------------------------------------------------|
A#|----------------------------------------------------------------------------------------|
F#|----------------------------------------------------------------------------------------|
C#|---------5----5-----------------5--5-6--6-5p0-------5----5------------------------------|
G#|---3--3-3-3-3--3/6-6-0----6--6----------------3--3-3-3-3--3/6-6-0----6--6----5--5-5-5/6-|
D#|-----------------------4-4--4--4----------------------------------4-4--4--3-3--3--3-3/4-|
   *****************************************************************************************

[Pre-chorus]
D#|-------------------------------------------------------|
A#|----------------------------------------3--------4---3-|
F#|-5-----5-4----------------------5-----5----------------|
C#|----5------5--5/7-7-8-7-5/3p0------5-------5-5/6-------|
G#|-------------------------------------------------------|
D#|-------------------------------------------------------|

[Chorus]
D#|--------------------------------------------------------------------------------------------|
A#|--------------------------------------------------------------------------------------------|
F#|-8--8-8--8-8--8-8--8-8--3--3-3--3-3--3-3--3-3--5--5-5--5-5--5-5--5-5------------------------|
C#|-8--8-8--8-8--8-8--8-8--3--3-3--3-3--3-3--3-3--5--5-5--5-5--5-5--5-5--6--6-6--6-6--6-6--6-6-|
G#|-6--6-6--6-6--6-6--6-6--1--1-1--1-1--1-1--1-1--3--3-3--3-3--3-3--3-3--6--6-6--6-6--6-6--6-6-|
D#|----------------------------------------------------------------------4--4-4--4-4--4-4--4-4-|

D#|-----------------------------------------------------------------------------------------|
A#|-----------------------------------------------------------------------------------------|
F#|-8--8-8--8-8--8-8--8-8------------------------------------------------3-3--3-3--3-3--3-3-|
C#|-8--8-8--8-8--8-8--8-8--5--5-5--5-5--5-5--5-5--6--6-6--6-6--6-6--6-6--3-3--3-3--3-3--3-3-|
G#|-6--6-6--6-6--6-6--6-6--5--5-5--5-5--5-5--5-5--6--6-6--6-6--6-6--6-6--1-1--1-1--1-1--1-1-|
D#|------------------------3--3-3--3-3--3-3--3-3--4--4-4--4-4--4-4--4-4---------------------|

D#|-------------------------------------------|
A#|-------------------------------------------|
F#|---5--5-5--5-5--5-5--5-5--5-5--3-----------|
C#|---5--5-5--5-5--5-5--5-5--5-5--3------6--5-|
G#|---3--3-3--3-3--3-3--3-3--3-3--1------6--5-|
D#|--------------------------------------4--3-|

[Verse]
D#|----------------------------------------------------------------------------------------|
A#|----------------------------------------------------------------------------------------|
F#|----------------------------------------------------------------------------------------|
C#|---------5----5-----------------5--5-6--6-5p0-------5----5------------------------------|
G#|---3--3-3-3-3--3/6-6-0----6--6----------------3--3-3-3-3--3/6-6-0----6--6----5--5-5-5/6-|
D#|-----------------------4-4--4--4----------------------------------4-4--4--3-3--3--3-3/4-|
  *****************************************************************************************

D#|----------------------------------------------------------------------------------------|
A#|----------------------------------------------------------------------------------------|
F#|----------------------------------------------------------------------------------------|
C#|---------5----5-----------------5--5-6--6-5p0-------5----5------------------------------|
G#|---3--3-3-3-3--3/6-6-0----6--6----------------3--3-3-3-3--3/6-6-0----6--6----5--5-5-5/6-|
D#|-----------------------4-4--4--4----------------------------------4-4--4--3-3--3--3-3/4-|
   *****************************************************************************************

[Pre-chorus]
D#|-------------------------------------------------------|
A#|----------------------------------------3--------4---3-|
F#|-5-----5-4----------------------5-----5----------------|
C#|----5------5--5/7-7-8-7-5/3p0------5-------5-5/6-------|
G#|-------------------------------------------------------|
D#|-------------------------------------------------------|

[Chorus]
D#|--------------------------------------------------------------------------------------------|
A#|--------------------------------------------------------------------------------------------|
F#|-8--8-8--8-8--8-8--8-8--3--3-3--3-3--3-3--3-3--5--5-5--5-5--5-5--5-5------------------------|
C#|-8--8-8--8-8--8-8--8-8--3--3-3--3-3--3-3--3-3--5--5-5--5-5--5-5--5-5--6--6-6--6-6--6-6--6-6-|
G#|-6--6-6--6-6--6-6--6-6--1--1-1--1-1--1-1--1-1--3--3-3--3-3--3-3--3-3--6--6-6--6-6--6-6--6-6-|
D#|----------------------------------------------------------------------4--4-4--4-4--4-4--4-4-|

D#|-----------------------------------------------------------------------------------------|
A#|-----------------------------------------------------------------------------------------|
F#|-8--8-8--8-8--8-8--8-8------------------------------------------------3-3--3-3--3-3--3-3-|
C#|-8--8-8--8-8--8-8--8-8--5--5-5--5-5--5-5--5-5--6--6-6--6-6--6-6--6-6--3-3--3-3--3-3--3-3-|
G#|-6--6-6--6-6--6-6--6-6--5--5-5--5-5--5-5--5-5--6--6-6--6-6--6-6--6-6--1-1--1-1--1-1--1-1-|
D#|------------------------3--3-3--3-3--3-3--3-3--4--4-4--4-4--4-4--4-4---------------------|

D#|---------------------------|
A#|---------------------------|
F#|-5-------------------------|
C#|-3--------------------6--5-|
G#|-1--------------------6--5-|
D#|----------------------4--3-|

[Bridge]
D#|---------------------------------------------------------------------------------------------|
A#|---------------------------------------------------------------------------------------------|
F#|---------------------------------------------------------------------------------------------|
C#|--5-5-5-5-5-5-5-5-8-8-8-8-8-8-8-8-13-13-13-13-13-13-13-13-10-10-10-10-10-10-10-10----13---/5-|
G#|--3-3-3-3-3-3-3-3-6-6-6-6-6-6-6-6-11-11-11-11-11-11-11-11-8--8--8--8--8--8--8--8--11----11/3-|
D#|---------------------------------------------------------------------------------------------|
   **********************************************************************************        ***

D
 D#|---------------------------------------------------------------------------------------------|
 A#|---------------------------------------------------------------------------------------------|
 F#|---------------------------------------------------------------------------------------------|
 C#|--5-5-5-5-5-5-5-5-8-8-8-8-8-8-8-8-13-13-13-13-13-13-13-13-10-10-10-10-10-10-10-10----13---/5-|
 G#|--3-3-3-3-3-3-3-3-6-6-6-6-6-6-6-6-11-11-11-11-11-11-11-11-8--8--8--8--8--8--8--8--11----11/3-|
 D#|---------------------------------------------------------------------------------------------|
   **********************************************************************************        ***

D#|---------------------------------------------------------------------------------------------|
A#|---------------------------------------------------------------------------------------------|
F#|---------------------------------------------------------------------------------------------|
C#|--5-5-5-5-5-5-5-5-8-8-8-8-8-8-8-8-13-13-13-13-13-13-13-13-10-10-10-10-10-10-10-10----13---/5-|
G#|--3-3-3-3-3-3-3-3-6-6-6-6-6-6-6-6-11-11-11-11-11-11-11-11-8--8--8--8--8--8--8--8--11----11/3-|
D#|---------------------------------------------------------------------------------------------|
   **********************************************************************************        ***

[Pre-chorus]
D#|-------------------------------------------------------|
A#|----------------------------------------3--------4---3-|
F#|-5-----5-4----------------------5-----5----------------|
C#|----5------5--5/7-7-8-7-5/3p0------5-------5-5/6-------|
G#|-------------------------------------------------------|
D#|-------------------------------------------------------|

[Chorus]
D#|--------------------------------------------------------------------------------------------|
A#|--------------------------------------------------------------------------------------------|
F#|-8--8-8--8-8--8-8--8-8--3--3-3--3-3--3-3--3-3--5--5-5--5-5--5-5--5-5------------------------|
C#|-8--8-8--8-8--8-8--8-8--3--3-3--3-3--3-3--3-3--5--5-5--5-5--5-5--5-5--6--6-6--6-6--6-6--6-6-|
G#|-6--6-6--6-6--6-6--6-6--1--1-1--1-1--1-1--1-1--3--3-3--3-3--3-3--3-3--6--6-6--6-6--6-6--6-6-|
D#|----------------------------------------------------------------------4--4-4--4-4--4-4--4-4-|

D#|-----------------------------------------------------------------------------------------|
A#|-----------------------------------------------------------------------------------------|
F#|-8--8-8--8-8--8-8--8-8------------------------------------------------3-3--3-3--3-3--3-3-|
C#|-8--8-8--8-8--8-8--8-8--5--5-5--5-5--5-5--5-5--6--6-6--6-6--6-6--6-6--3-3--3-3--3-3--3-3-|
G#|-6--6-6--6-6--6-6--6-6--5--5-5--5-5--5-5--5-5--6--6-6--6-6--6-6--6-6--1-1--1-1--1-1--1-1-|
D#|------------------------3--3-3--3-3--3-3--3-3--4--4-4--4-4--4-4--4-4---------------------|

[Solo]
D#|---------------------------------------------------------------------------------------------------|
A#|---------------------------------------------------------------------------------------------------|
F#|-8--8-8--8-8--8-8--8-10-12--7--7-7--7-7--7-7--7-8-10--5--5-5--5-5--5-5--5-8-7--3--3-3--3-3--1b-0---|
C#|-------------------------------------------------------------------------------------------------1-|
G#|---------------------------------------------------------------------------------------------------|
D#|---------------------------------------------------------------------------------------------------|

D#|------------------------------------------------------------------------------------------------|
A#|------------------------------------------------------------------------------------------------|
F#|-8--8-8--8-8--8-8--8-10-12--7--7-7--7-7--7-7--7-8-10--13-12-10--13-12-10--15-13-12--15-13-12----|
C#|---------------------------------------------------------------------------------------------13-|
G#|------------------------------------------------------------------------------------------------|
D#|------------------------------------------------------------------------------------------------|

************************************

| p  Pull-off
| /  Slide up
| b  Bend
| *  palm mute

************************************
Suggest correction
Creating personal tab
Creating personal tab
You can edit any tab online and save it as your Personal.

You can edit, replace or remove any tab part or add personal notes – all changes will be seen only by you.

Personal tabs can be accessed anytime from any device, even offline.
Learn more »
Give kudos to tab author, rate the tab!
1 2 3 4 5
comments
print report bad tab
guest
You may want to rate the tab now too:
select rating
Wanna post a correction for this tab? Suggest correction