Oops, an error
Loading. Please wait.

My Cannibal Paradise tab

10 views 3 this week
no commentswrite comment
1 2 3 4 5
3 more votes to show rating
add to favorites
×
Save as Personal and add changes to this tab that will be seen only by you. Learn more ›
×
You can save this tab as Personal to edit and correct it or add notes. All changes will be seen only by you. Learn more »
launch autoscroll
font size
0
reset
how to read this tab
guitar tuner
edit
Autoscroll
slow
fast
+/-
esc
set tempo
stop
[Intro]
d#|-----------------------------------------------------------------------------------------|
A#|----0--------0----0-------0--------0----0-------0--------0----0-------0--------0----0----|
F#|-------0--7-----0---0--5-----0--7-----0---0--------0--7-----0---0--5-----0--7-----0---0--|
C#|-5--------7------------5--------7------------5--------7------------5--------7------------|
G#|-5--------5------------3--------5------------5--------5------------3--------5------------|
D#|-3-------------------------------------------3-------------------------------------------|

d#|-12--10--12--10-12-10-12--10--12--10-12-10-12-10----------------------------|
A#|-10--10--10--10-10-10-10--10--10--10-10-10-10-10----------------------------|
F#|--------------------------------------------------12~~--16~-14~~--12-11-12~-|
C#|----------------------------------------------------------------------------|
G#|----------------------------------------------------------------------------|
D#|----------------------------------------------------------------------------|

[Verse]
d#|---------------------------------------------------------------------------------------|
A#|------------------------------------------------------------------------------------0--|
F#|----------------------7-7-7--7-7-7--7-7-7--5-5-5--5-5-5--5-5-5--7-7-7--7-7-7--7-7-0----|
C#|-5-5-5--5-5-5--5-5-5--7-7-7--7-7-7--7-7-7--5-5-5--5-5-5--5-5-5--7-7-7--7-7-7--7-7------|
G#|-5-5-5--5-5-5--5-5-5--5-5-5--5-5-5--5-5-5--3-3-3--3-3-3--3-3-3--5-5-5--5-5-5--5-5------|
D#|-3-3-3--3-3-3--3-3-3-------------------------------------------------------------------|
    ****   ****   ****   ****   ****   ****   ****   ****   ****   ****   ****

d#|---------------------------------------------------------------------------------------|
d#|---------------------------------------------------------------------------------------|
A#|------------------------------------------------------------------------------------0--|
F#|----------------------7-7-7--7-7-7--7-7-7--5-5-5--5-5-5--5-5-5--7-7-7--7-7-7--7-7-0----|
C#|-5-5-5--5-5-5--5-5-5--7-7-7--7-7-7--7-7-7--5-5-5--5-5-5--5-5-5--7-7-7--7-7-7--7-7------|
G#|-5-5-5--5-5-5--5-5-5--5-5-5--5-5-5--5-5-5--3-3-3--3-3-3--3-3-3--5-5-5--5-5-5--5-5------|
D#|-3-3-3--3-3-3--3-3-3-------------------------------------------------------------------|
    ****   ****   ****   ****   ****   ****   ****   ****   ****   ****   ****

[Pre-chorus]
d#|------------------------------------------------------|-------------------------------------------|
A#|------------------------------------------------------|-------------------------------------------|
F#|--9--9--9-9-9--5--5--5-5-5--7--7--7-7-7--9--7--9-9-9--|--5-5-5-5-5-5-5-5-5-5-5-5-5-5-5-5--7-----7-|
C#|--9--9--9-9-9--5--5--5-5-5--7--7--7-7-7--9--7--9-9-9--|--5-5-5-5-5-5-5-5-5-5-5-5-5-5-5-5--7-----7-|
G#|--7--7--7-7-7--3--3--3-3-3--5--5--5-5-5--7--7--7-7-7--|--3-3-3-3-3-3-3-3-3-3-3-3-3-3-3-3--5-----5-|
D#|------------------------------------------------------|-------------------------------------------|
                                                            *******************************

[Chorus]
d#|-3--3-3--3-3--5--5-5--5-5--3--3-3--3-3--5--5-5--5-5-|-3--3-3--3-3--5--5-5--5-5--3--3-3--3-3--5--5-5--5-5-|
A#|-3--3-3--3-3--7--7-7--7-7--5--5-5--5-5--7--7-7--7-7-|-3--3-3--3-3--7--7-7--7-7--5--5-5--5-5--7--7-7--7-7-|
F#|-4--4-4--4-4--7--7-7--7-7--5--5-5--5-5--7--7-7--7-7-|-4--4-4--4-4--7--7-7--7-7--5--5-5--5-5--7--7-7--7-7-|
C#|-5--5-5--5-5--7--7-7--7-7--5--5-5--5-5--7--7-7--7-7-|-5--5-5--5-5--7--7-7--7-7--5--5-5--5-5--7--7-7--7-7-|
G#|-5--5-5--5-5--5--5-5--5-5--3--3-3--3-3--5--5-5--5-5-|-5--5-5--5-5--5--5-5--5-5--3--3-3--3-3--5--5-5--5-5-|
D#|-3--3-3--3-3----------------------------------------|-3--3-3--3-3----------------------------------------|


d#|-3--3-3--3-3--5--5-5--5-5--3--3-3--3-3--5--5-5--5-5-|-3--3-3--3-3--5--5-5--5-5--3--3-3--3-3--5--5-5--5-5-|
A#|-3--3-3--3-3--7--7-7--7-7--5--5-5--5-5--7--7-7--7-7-|-3--3-3--3-3--7--7-7--7-7--5--5-5--5-5--7--7-7--7-7-|
F#|-4--4-4--4-4--7--7-7--7-7--5--5-5--5-5--7--7-7--7-7-|-4--4-4--4-4--7--7-7--7-7--5--5-5--5-5--7--7-7--7-7-|
C#|-5--5-5--5-5--7--7-7--7-7--5--5-5--5-5--7--7-7--7-7-|-5--5-5--5-5--7--7-7--7-7--5--5-5--5-5--7--7-7--7-7-|
G#|-5--5-5--5-5--5--5-5--5-5--3--3-3--3-3--5--5-5--5-5-|-5--5-5--5-5--5--5-5--5-5--3--3-3--3-3--5--5-5--5-5-|
D#|-3--3-3--3-3----------------------------------------|-3--3-3--3-3----------------------------------------|

d#|----------------------|
A#|----------------------|
F#|-9-9-7-9----9-9-7-9-5-|
C#|-9-9-7-9----9-9-7-9-5-|
G#|-7-7-5-7----7-7-5-7-3-|
D#|----------------------|

[Verse]
d#|---------------------------------------------------------------------------------------|
A#|------------------------------------------------------------------------------------0--|
F#|----------------------7-7-7--7-7-7--7-7-7--5-5-5--5-5-5--5-5-5--7-7-7--7-7-7--7-7-0----|
C#|-5-5-5--5-5-5--5-5-5--7-7-7--7-7-7--7-7-7--5-5-5--5-5-5--5-5-5--7-7-7--7-7-7--7-7------|
G#|-5-5-5--5-5-5--5-5-5--5-5-5--5-5-5--5-5-5--3-3-3--3-3-3--3-3-3--5-5-5--5-5-5--5-5------|
D#|-3-3-3--3-3-3--3-3-3-------------------------------------------------------------------|
    ****   ****   ****   ****   ****   ****   ****   ****   ****   ****   ****

d#|---------------------------------------------------------------------------------------|
d#|---------------------------------------------------------------------------------------|
A#|------------------------------------------------------------------------------------0--|
F#|----------------------7-7-7--7-7-7--7-7-7--5-5-5--5-5-5--5-5-5--7-7-7--7-7-7--7-7-0----|
C#|-5-5-5--5-5-5--5-5-5--7-7-7--7-7-7--7-7-7--5-5-5--5-5-5--5-5-5--7-7-7--7-7-7--7-7------|
G#|-5-5-5--5-5-5--5-5-5--5-5-5--5-5-5--5-5-5--3-3-3--3-3-3--3-3-3--5-5-5--5-5-5--5-5------|
D#|-3-3-3--3-3-3--3-3-3-------------------------------------------------------------------|
    ****   ****   ****   ****   ****   ****   ****   ****   ****   ****   ****

[Pre-chorus]
d#|----------------------------------|
A#|----------------------------------|
F#|-------5---5-----5---5-----7----8-|
C#|---5-5---5---5-5---5---7-7---7--8-|
G#|----------------------------------|
D#|----------------------------------|

[Chorus]
d#|-3--3-3--3-3--5--5-5--5-5--3--3-3--3-3--5--5-5--5-5-|-3--3-3--3-3--5--5-5--5-5--3--3-3--3-3--5--5-5--5-5-|
A#|-3--3-3--3-3--7--7-7--7-7--5--5-5--5-5--7--7-7--7-7-|-3--3-3--3-3--7--7-7--7-7--5--5-5--5-5--7--7-7--7-7-|
F#|-4--4-4--4-4--7--7-7--7-7--5--5-5--5-5--7--7-7--7-7-|-4--4-4--4-4--7--7-7--7-7--5--5-5--5-5--7--7-7--7-7-|
C#|-5--5-5--5-5--7--7-7--7-7--5--5-5--5-5--7--7-7--7-7-|-5--5-5--5-5--7--7-7--7-7--5--5-5--5-5--7--7-7--7-7-|
G#|-5--5-5--5-5--5--5-5--5-5--3--3-3--3-3--5--5-5--5-5-|-5--5-5--5-5--5--5-5--5-5--3--3-3--3-3--5--5-5--5-5-|
D#|-3--3-3--3-3----------------------------------------|-3--3-3--3-3----------------------------------------|

d#|-3--3-3--3-3--5--5-5--5-5--3--3-3--3-3--5--5-5--5-5-|-3--3-3--3-3--5--5-5--5-5--3--3-3--3-3--5--5-5--5-5-|
A#|-3--3-3--3-3--7--7-7--7-7--5--5-5--5-5--7--7-7--7-7-|-3--3-3--3-3--7--7-7--7-7--5--5-5--5-5--7--7-7--7-7-|
F#|-4--4-4--4-4--7--7-7--7-7--5--5-5--5-5--7--7-7--7-7-|-4--4-4--4-4--7--7-7--7-7--5--5-5--5-5--7--7-7--7-7-|
C#|-5--5-5--5-5--7--7-7--7-7--5--5-5--5-5--7--7-7--7-7-|-5--5-5--5-5--7--7-7--7-7--5--5-5--5-5--7--7-7--7-7-|
G#|-5--5-5--5-5--5--5-5--5-5--3--3-3--3-3--5--5-5--5-5-|-5--5-5--5-5--5--5-5--5-5--3--3-3--3-3--5--5-5--5-5-|
D#|-3--3-3--3-3----------------------------------------|-3--3-3--3-3----------------------------------------|

[Solo]
d#|---------------------------------------16b-15----------|
A#|------------------12--------------------------17-15----|
F#|-14b---14~--12-14----14-12-------14-12--------------16-|
C#|---------------------------14-12-----------------------|
G#|-------------------------------------------------------|
D#|-------------------------------------------------------|

d#|----------------------------------------------------------------|
A#|---------------------------------------12-----12^---------------|
F#|-14b---14~-12-14-12----------12-14-14b----14b-----14b---14-12~~-|
C#|--------------------14-12-14------------------------------------|
G#|----------------------------------------------------------------|
D#|----------------------------------------------------------------|

[Bridge]
d#|--------------------------------------------|
A#|----0--------0----0-------0--------0----0---|
F#|-------0--7-----0---0--5-----0--7-----0---0-|
C#|-5--------7------------5--------7-----------|
G#|-5--------5------------3--------5-----------|
D#|-3------------------------------------------|

d#|-12--10--12--10-12-10-12--10--12--10-12-10-12-10-|
A#|-10--10--10--10-10-10-10--10--10--10-10-10-10-10-|
F#|-------------------------------------------------|
C#|-------------------------------------------------|
G#|-------------------------------------------------|
D#|-------------------------------------------------|

[Chorus]
d#|------------------------------------------------------|
A#|------------------------------------------------------|
F#|---------------7------------5------------7------------|
C#|--5------------7------------5------------7------------|
G#|--5------------5------------3------------5------------|
D#|--3---------------------------------------------------|

d#|-3--3-3--3-3--5--5-5--5-5--3--3-3--3-3--5--5-5--5-5-|
A#|-3--3-3--3-3--7--7-7--7-7--5--5-5--5-5--7--7-7--7-7-|
F#|-4--4-4--4-4--7--7-7--7-7--5--5-5--5-5--7--7-7--7-7-|
C#|-5--5-5--5-5--7--7-7--7-7--5--5-5--5-5--7--7-7--7-7-|
G#|-5--5-5--5-5--5--5-5--5-5--3--3-3--3-3--5--5-5--5-5-|
D#|-3--3-3--3-3----------------------------------------|

d#|-3--3-3--3-3--5--5-5--5-5--3--3-3--3-3--5--5-5--5-5-|
A#|-3--3-3--3-3--7--7-7--7-7--5--5-5--5-5--7--7-7--7-7-|
F#|-4--4-4--4-4--7--7-7--7-7--5--5-5--5-5--7--7-7--7-7-|
C#|-5--5-5--5-5--7--7-7--7-7--5--5-5--5-5--7--7-7--7-7-|
G#|-5--5-5--5-5--5--5-5--5-5--3--3-3--3-3--5--5-5--5-5-|
D#|-3--3-3--3-3----------------------------------------|

d#|-3--3-3--3-3--5--5-5--5-5--3--3-3--3-3--5--5-5--5-5-|
A#|-3--3-3--3-3--7--7-7--7-7--5--5-5--5-5--7--7-7--7-7-|
F#|-4--4-4--4-4--7--7-7--7-7--5--5-5--5-5--7--7-7--7-7-|
C#|-5--5-5--5-5--7--7-7--7-7--5--5-5--5-5--7--7-7--7-7-|
G#|-5--5-5--5-5--5--5-5--5-5--3--3-3--3-3--5--5-5--5-5-|
D#|-3--3-3--3-3----------------------------------------|

[Outro]
d#|-3--3-3--3-3--5--5-5--5-5--3--3-3--3-3--5--5-5--5-5-|-3--3-3--3-3--5--5-5--5-5--3--3-3--3-3--5--5-5--5-5-|
A#|-3--3-3--3-3--7--7-7--7-7--5--5-5--5-5--7--7-7--7-7-|-3--3-3--3-3--7--7-7--7-7--5--5-5--5-5--7--7-7--7-7-|
F#|-4--4-4--4-4--7--7-7--7-7--5--5-5--5-5--7--7-7--7-7-|-4--4-4--4-4--7--7-7--7-7--5--5-5--5-5--7--7-7--7-7-|
C#|-5--5-5--5-5--7--7-7--7-7--5--5-5--5-5--7--7-7--7-7-|-5--5-5--5-5--7--7-7--7-7--5--5-5--5-5--7--7-7--7-7-|
G#|-5--5-5--5-5--5--5-5--5-5--3--3-3--3-3--5--5-5--5-5-|-5--5-5--5-5--5--5-5--5-5--3--3-3--3-3--5--5-5--5-5-|
D#|-3--3-3--3-3----------------------------------------|-3--3-3--3-3----------------------------------------|

d#|-3--3-3--3-3--5--5-5--5-5--3--3-3--3-3--5--5-5--5-5-|-3--3-3--3-3--5--5-5--5-5--3--3-3--3-3--5--5-5--5-5-|
A#|-3--3-3--3-3--7--7-7--7-7--5--5-5--5-5--7--7-7--7-7-|-3--3-3--3-3--7--7-7--7-7--5--5-5--5-5--7--7-7--7-7-|
F#|-4--4-4--4-4--7--7-7--7-7--5--5-5--5-5--7--7-7--7-7-|-4--4-4--4-4--7--7-7--7-7--5--5-5--5-5--7--7-7--7-7-|
C#|-5--5-5--5-5--7--7-7--7-7--5--5-5--5-5--7--7-7--7-7-|-5--5-5--5-5--7--7-7--7-7--5--5-5--5-5--7--7-7--7-7-|
G#|-5--5-5--5-5--5--5-5--5-5--3--3-3--3-3--5--5-5--5-5-|-5--5-5--5-5--5--5-5--5-5--3--3-3--3-3--5--5-5--5-5-|
D#|-3--3-3--3-3----------------------------------------|-3--3-3--3-3----------------------------------------|

d#|----------------------------------|
A#|----------------------------------|
F#|-9-9-7-8--9-9-7-8--9-9-7-8--9-8-9-|
C#|-9-9-7-8--9-9-7-8--9-9-7-8--9-8-9-|
G#|-7-7-5-6--7-7-5-6--7-7-5-6--7-6-7-|
D#|----------------------------------|

xxxxxxxxxxxxxxxxxxxxxxxxxxxxxxxxxxxxxxxxxxx

*=palm-muted
~=tremolo
b=bend
^=artificial harmonic



************************************

| ~  Vibrato
| b  Bend
| *  palm-muted
| ^  artificial harmonic

************************************

            
            
Suggest correction
Creating personal tab
Creating personal tab
You can edit any tab online and save it as your Personal.

You can edit, replace or remove any tab part or add personal notes – all changes will be seen only by you.

Personal tabs can be accessed anytime from any device, even offline.
Learn more »
Give kudos to tab author, rate the tab!
1 2 3 4 5
comments
print report bad tab
guest
You may want to rate the tab now too:
select rating
Wanna post a correction for this tab? Suggest correction