Oops, an error
Loading. Please wait.

Cold Chills bass

version 1
version 1

Whole song

Interactive

by Kix
128 views 1 this week
no commentswrite comment
1 2 3 4 5
3 more votes to show rating
add to favorites
×
Save as Personal and add changes to this tab that will be seen only by you. Learn more ›
×
You can save this tab as Personal to edit and correct it or add notes. All changes will be seen only by you. Learn more »
launch autoscroll
font size
0
reset
guitar tuner
edit
Autoscroll
slow
fast
+/-
esc
set tempo
stop
Author
Difficulty
-----------------------------------------------------------------------------
                                  
                      Cold Chills - Kix (BASS)
            
-----------------------------------------------------------------------------
Tabbed by: Scotto10

Tuning: standard tuning

=============================================================================

Bass



     E   E  E  E  E  E  E  E     E  E  E  E  E  E  E  E   
G||---------------------------|--------------------------|
D||---------------------------|--------------------------|
A||--7\-----------------------|-----------------2--------|
E||------0--2--3--5-----5-----|--0--2--3--5--5-----5--3--|


  E   E  E  E  E  E  E  E     E  E  E  E  E  E  E  E   
---------------------------|--------------------------|
---------------------------|--------------------------|
--7\-----------------------|-----------------2--------|
------0--2--3--5-----5-----|--0--2--3--5--5-----5--3--|


  E  E  E  E  E  E  E  E     E  E  E  E  E  E  E  E   
--------------------------|--------------------------|
--2-----------------------|--------------------------|
--------------------------|-----------------2--------|
-----0--2--3--5-----5-----|--0--2--3--5--5-----5--3--|


  E  E  E  E  E  E  E  E     E  E  E  E  E  E  E  E   
--------------------------|--------------------------|
--------------------------|--------------------------|
--2--2--2--2--2--2--2--2--|--2--2--2--2--2--2--2--2--|
--------------------------|--------------------------|


  E  E  E  E  E  E  E  E     E  E  E  E  E  E  E  E   
--------------------------|--------------------------|
--2-----------------------|--------------------------|
--------------------------|-----------------2--------|
-----0--2--3--5-----5-----|--0--2--3--5--5-----5--3--|


  E  E  E  E  E  E  E  E     E  E  E  E  E  E  E  E   
--------------------------|--------------------------|
--2-----------------------|--------------------------|
--------------------------|-----------------2--------|
-----0--2--3--5-----5-----|--0--2--3--5--5-----5--3--|


  E  E  E  E  E  E  E  E     E  E  E  E  E  E  E  E   
--------------------------|--------------------------|
--2-----------------------|--------------------------|
--------------------------|-----------------2--------|
-----0--2--3--5-----5-----|--0--2--3--5--5-----5--3--|


  E  E  E  E  E  E  E  E     E  E  E  E  E  E  E  E   
--------------------------|--------------------------|
--2-----------------------|--------------------------|
--------------------------|-----------------2--------|
-----0--2--3--5-----5-----|--0--2--3--5--5-----5--3--|


  E  E  E  E  E  E  E  E     E  E  E  E  E  E  E  E   
--------------------------|--------------------------|
--2-----------------------|--------------------------|
--------------------------|-----------------2--------|
-----0--2--3--5-----5-----|--0--2--3--5--5-----5--3--|


  E  E  E  E  E  E  E  E     E  E  E  E  E  E  E  E   
--------------------------|--------------------------|
--2-----------------------|--------------------------|
--------------------------|-----------------2--------|
-----0--2--3--5-----5-----|--0--2--3--5--5-----5--3--|


  E  E  E  E  E  E  E  E     E  E  E  E  E  E  E  E   
--------------------------|--------------------------|
--2-----------------------|--------------------------|
--------------------------|-----------------2--------|
-----0--2--3--5-----5-----|--0--2--3--5--5-----5--3--|


  E  E  E  E  E  E  E  E     E  E  E  E  E  E  E  E   
--------------------------|--------------------------|
--2-----------------------|--------------------------|
--------------------------|-----------------2--------|
-----0--2--3--5-----5-----|--0--2--3--5--5-----5--3--|


  E  E  E  E  E  E  E  E     E  E  E  E  E  E  E  E   
--------------------------|--------------------------|
--------------------------|-----------------------5--|
--------------5-----5-----|-----------5--5--6--7-----|
--5--5--7--8--------------|--5--7--8-----------------|


  E  E  E  E  E  E  E  E     E  E  E  E  E  E  E  E     Q    Q    E  E  E  E   
--------------------------|--------------------------|------------------------|
--------------------------|--------------------------|------------------------|
--------------------------|-----------------2--------|--5----5-------5--5-----|
--0--0--2--3--5-----5-----|--0--2--3--5--5-----5--3--|------------5--------5--|


  Q    Q    E  E  E  E     E  E  E  E  E  E  E  E     E  E  E  E  E  E  E  E   
------------------------|--------------------------|--------------------------|
------------------------|--------------------------|--------------------------|
--5----5----5--5--5--5--|--------------------------|-----------------------5--|
------------------------|--7--7--7--7--7--7--7--7--|--7--7--7--7--7--7--7-----|


  E  E  E  E  Q    E  E     E  E  E  E  E  E  E  E   
-------------------------|--------------------------|
-------------------------|--------------------------|
--7----------------------|-----------------------2--|
-----0--0-----0-------3--|-----5--5-----5-----5-----|


                   |--3--|                              
  E  E  E  E  Q    E  E  E     E  E  E  E  E  E  E  E   
----------------------------|--------------------------|
----------------------------|--------------------------|
--3--3--3-----3----3--3--3--|--5--5--5--5--5-----------|
----------------------------|-----------------5--5--3--|


  E  E  E  E  Q    E  E     E  E  E  E  E  E  E  E   
-------------------------|--------------------------|
-------------------------|--------------------------|
--7----------------------|-----------------------2--|
-----0--0-----0-------3--|-----5--5-----5-----5-----|


                   |--3--|                              
  E  E  E  E  Q    E  E  E     E  E  E  E  E  E  E  E   
----------------------------|--------------------------|
----------------------------|--------------------------|
--3--3--3-----3----3--3--3--|--5--5--5--5--5-----5-----|
----------------------------|-----------------5-----5--|


  E  E  E  E  E  E  E  E     E  E  E  E  E  E  E  E   
--------------------------|--------------------------|
--------------------------|--------------------------|
--6--6--6--6--6--6--6--6--|--7--7--7--7--7--7--7--7--|
--------------------------|--------------------------|


  E  E  E  E  E  E  E  E     E  E  E  E  E  E  E  E     E  E  E  E  Q    E  E   
--------------------------|--------------------------|-------------------------|
--------------------------|--------------------------|-------------------------|
--------------------------|--------------------------|--7----------------------|
--8--8--8--8--8--8--8--8--|--7--7--7--7--7--7--7--7--|-----0--0-----0----0--2--|


  E  E  E  E  Q    E  E      E  E  E  Q    E  E  E     E  E  H.            
--------------------------|-------------------------|---------------------|
--------------------------|-------------------------|---------------------|
--------------------------|--5--------5-------------|---------------------|
--3-----3-----3----3--L/--|-----5--5-------5--5--5--|--7------------------|


  E  E  E  E  E  E  E  E     E  E  E  E  E  E  E  E   
--------------------------|--------------------------|
--------------------------|--------------------------|
--7-----------------------|-----------------2--------|
-----0--2--3--5-----5-----|--0--2--3--5--5-----5--3--|


  E  E  E  E  E  E  E  E     E  E  E  E  E  E  E  E   
--------------------------|--------------------------|
--2-----------------------|--------------------------|
--------------------------|-----------------2--------|
-----0--2--3--5-----5-----|--0--2--3--5--5-----5--3--|


  E  E  E  E  E  E  E  E     E  E  E  E  E  E  E  E   
--------------------------|--------------------------|
--2-----------------------|--------------------------|
--------------------------|-----------------2--------|
-----0--2--3--5-----5-----|--0--2--3--5--5-----5--3--|


  E  E  E  E  E  E  E  E     E  E  E  E  E  E  E  E   
--------------------------|--------------------------|
--2-----------------------|--------------------------|
--------------------------|-----------------2--------|
-----0--2--3--5-----5-----|--0--2--3--5--5-----5--3--|


  E  E  E  E  E  E  E  E     E  E  E  E  E  E  E  E   
--------------------------|--------------------------|
--2-----------------------|--------------------------|
--------------------------|-----------------2--------|
-----0--2--3--5-----5-----|--0--2--3--5--5-----5--3--|


  E  E  E  E  E  E  E  E     E  E  E  E  E  E  E  E   
--------------------------|--------------------------|
--2-----------------------|--------------------------|
--------------------------|-----------------2--------|
-----0--2--3--5-----5-----|--0--2--3--5--5-----5--3--|


  E  E  E  E  E  E  E  E     E  E  E  E  E  E  E  E   
--------------------------|--------------------------|
--2-----------------------|--------------------------|
--------------------------|-----------------2--------|
-----0--2--3--5-----5-----|--0--2--3--5--5-----5--3--|


  E  E  E  E  E  E  E  E     E  E  E  E  E  E  E  E   
--------------------------|--------------------------|
--2-----------------------|--------------------------|
--------------------------|-----------------2--------|
-----0--2--3--5-----5-----|--0--2--3--5--5-----5--3--|


  E  E  E  E  E  E  E  E     E  E  E  E  E  E  E  E   
--------------------------|--------------------------|
--------------------------|-----------------------5--|
--------------5-----5-----|-----------5--5--6--7-----|
--5--5--7--8--------------|--5--7--8-----------------|


  E  E  E  E  E  E  E  E     E  E  E  E  E  E  E  E     Q    Q    E  E  E  E   
--------------------------|--------------------------|------------------------|
--------------------------|--------------------------|------------------------|
--------------------------|-----------------2--------|--5----5-------5--5-----|
--0--0--2--3--5-----5-----|--0--2--3--5--5-----5--3--|------------5--------5--|


  Q    Q    E  E  E  E     E  E  E  E  E  E  E  E     E  E  E  E  E  E  E  E   
------------------------|--------------------------|--------------------------|
------------------------|--------------------------|--------------------------|
--5----5----5--5--5--5--|--------------------------|-----------------------5--|
------------------------|--7--7--7--7--7--7--7--7--|--7--7--7--7--7--7--7-----|


  E  E  E  E  Q    E  E     E  E  E  E  E  E  E  E   
-------------------------|--------------------------|
-------------------------|--------------------------|
--7----------------------|-----------------------2--|
-----0--0-----0-------3--|-----5--5-----5-----5-----|


                   |--3--|                              
  E  E  E  E  Q    E  E  E     E  E  E  E  E  E  E  E   
----------------------------|--------------------------|
----------------------------|--------------------------|
--3--3--3-----3----3--3--3--|--5--5--5--5--5-----------|
----------------------------|-----------------5--5--3--|


  E  E  E  E  Q    E  E     E  E  E  E  E  E  E  E   
-------------------------|--------------------------|
-------------------------|--------------------------|
--7----------------------|-----------------------2--|
-----0--0-----0-------3--|-----5--5-----5-----5-----|


                   |--3--|                              
  E  E  E  E  Q    E  E  E     E  E  E  E  E  E  E  E   
----------------------------|--------------------------|
----------------------------|--------------------------|
--3--3--3-----3----3--3--3--|--5--5--5--5--5-----5-----|
----------------------------|-----------------5-----5--|


  E  E  E  E  E  E  E  E     E  E  E  E  E  E  E  E   
--------------------------|--------------------------|
--------------------------|--------------------------|
--6--6--6--6--6--6--6--6--|--7--7--7--7--7--7--7--7--|
--------------------------|--------------------------|


  E  E  E  E  E  E  E  E     E  E  E  E  E  E  E  E     E  E  E  E  Q    E  E   
--------------------------|--------------------------|-------------------------|
--------------------------|--------------------------|-------------------------|
--------------------------|-----------------------5--|--7----------------------|
--8--8--8--8--8--8--8--8--|--7--7--7--7--7--7--7-----|-----0--0-----0----0--2--|


  E  E  E  E  Q    E  E      E  E  E  Q    E  E  E     E  E  H.            
--------------------------|-------------------------|---------------------|
--------------------------|-------------------------|---------------------|
--------------------------|--5--------5----------7--|---------------------|
--3-----3-----3----3--L/--|-----5--5-------5--5-----|--7------------------|


  E  E  E  E  E  E  E  E     E  E  E  E  E  E  E  E   
--------------------------|--------------------------|
--------------------------|--------------------------|
--7--7--------5--5--------|--7--7--------5--5--------|
--------7--7--------5--5--|--------7--7--------5--5--|


  E  E  E  E  E  E  E  E     E  E  E  E  E  E  E  E   
--------------------------|--------------------------|
--------------------------|--------------------------|
--7--7--------5--5--------|--7--7--------5--5--------|
--------7--7--------5--5--|--------7--7--------5--5--|


  E  E  E  E  E  E  E  E     E  E  E  E  E  E  E  E   
--------------------------|--------------------------|
--------------------------|--------------------------|
--7--7--------5--5--------|--7--7--------5--5--------|
--------7--7--------5--5--|--------7--7--------5--5--|


  E  E  E  E  E  E  E  E     E  E  E  E  E  E  E  E   
--------------------------|--------------------------|
--------------------------|--------------------------|
--7--7--------5--5--------|--7--7--------5--5--------|
--------7--7--------5--5--|--------7--7--------5--5--|


  E  E  E  E  E  E  E  E     E  E  E  E  E  E  E  E   
--------------------------|--------------------------|
--------------------------|--------------------------|
--7--7--------5--5--------|--7--7--------5--5--------|
--------7--7--------5--5--|--------7--7--------5--5--|


  E  E  E  E  E  E  E  E     E  E  E  E  E  E  E  E   
--------------------------|--------------------------|
--------------------------|--------------------------|
--7--7--------5--5--------|--7--7--------5--5--------|
--------7--7--------5--5--|--------7--7--------5--5--|


  E  E  E  E  E  E  E  E     E  E  E  E  E  E  E  E   
--------------------------|--------------------------|
--2-----------------------|--------------------------|
--------------------------|-----------------2--------|
-----0--2--3--5-----5-----|--0--2--3--5--5-----5--3--|


  E  E  E  E  E  E  E  E     E  E  E  E  E  E  E  E   
--------------------------|--------------------------|
--2-----------------------|--------------------------|
--------------------------|-----------------2--------|
-----0--2--3--5-----5-----|--0--2--3--5--5-----5--3--|


  E  E  E  E  E  E  E  E     E  E  E  E  E  E  E  E   
--------------------------|--------------------------|
--2-----------------------|--------------------------|
--------------------------|-----------------2--------|
-----0--2--3--5-----5-----|--0--2--3--5--5-----5--3--|


  E  E  E  E  E  E  E  E     E  E  E  E  E  E  E  E   
--------------------------|--------------------------|
--2-----------------------|--------------------------|
--------------------------|-----------------2--------|
-----0--2--3--5-----5-----|--0--2--3--5--5-----5--3--|


  E  E  E  E  E  E  E  E     E  E  E  E  E  E  E  E   
--------------------------|--------------------------|
--2-----------------------|--------------------------|
--------------------------|-----------------2--------|
-----0--2--3--5-----5-----|--0--2--3--5--5-----5--3--|


  E  E  E  E  E  E  E  E     E  E  E  E  E  E  E  E   
--------------------------|--------------------------|
--2-----------------------|--------------------------|
--------------------------|-----------------2--------|
-----0--2--3--5-----5-----|--0--2--3--5--5-----5--3--|


  E  E  E  E  E  E  E  E     E  E  E  E  E  E  E  E   
--------------------------|--------------------------|
--2-----------------------|--------------------------|
--------------------------|-----------------2--------|
-----0--2--3--5-----5-----|--0--2--3--5--5-----5--3--|


  E  E  E  E  E  E  E  E     E  E  E  E  E  E  E  E   
--------------------------|--------------------------|
--2-----------------------|--------------------------|
--------------------------|-----------------2--------|
-----0--2--3--5-----5-----|--0--2--3--5--5-----5--3--|


  E  E  E  E  E  E  E  E     E  E  E  E  E  E  E  E   
--------------------------|--------------------------|
--------------------------|--------------------------|
--6--6--6--6--6--6--6--6--|--7--7--7--7--7--7--7--7--|
--------------------------|--------------------------|


  E  E  E  E  E  E  E  E     E  E  E  E  E  E  E  E   
--------------------------|--------------------------|
--------------------------|--------------------------|
--------------------------|--------------------------|
--8--8--8--8--8--8--8--8--|--7--7--7--7--7--7--7--7--|


  E  E  E  E  E  E  E  E     E  E  E  E  E  E  E  E   
--------------------------|--------------------------|
--------------------------|--------------------------|
--6--6--6--6--6--6--6--6--|--7--7--7--7--7--7--7--7--|
--------------------------|--------------------------|


  E  E  E  E  E  E  E  E     E  E  E  E  E  E  E  E     E  E  E  E  Q    E  E   
--------------------------|--------------------------|-------------------------|
--------------------------|--------------------------|-------------------------|
--------------------------|--------------------------|-------------------------|
--8--8--8--8--8--8--8--8--|--7--7--7--5--5--3--3--2--|--0--0--0-----0-------3--|


                                              |--3--|   
  E  E  E  E  E  E  E  E     E  E  E  E  Q    E  E  E   
--------------------------|----------------------------|
--------------------------|----------------------------|
-----------------------2--|--3--3--3-----3----3--3--3--|
-----5--5-----5-----5-----|----------------------------|


  E  E  E  E  E  E  E  E     E  E  E  E  Q    E  E     E  E  E  E  E  E  E  E   
--------------------------|-------------------------|--------------------------|
--------------------------|-------------------------|--------------------------|
--5--5--5--5--5-----------|--7----------------------|-----------------------2--|
-----------------5--5--3--|-----0--0-----0-------3--|-----5--5-----5-----5-----|


                   |--3--|                              
  E  E  E  E  Q    E  E  E     E  E  E  E  E  E  E  E   
----------------------------|--------------------------|
----------------------------|--------------------------|
--3--3--3-----3----3--3--3--|--5--5--5--5--5-----5-----|
----------------------------|-----------------5-----5--|


  E  E  E  E  E  E  E  E     E  E  E  E  E  E  E  E   
--------------------------|--------------------------|
--------------------------|--------------------------|
--6--6--6--6--6--6--6--6--|--7--7--7--7--7--7--7--7--|
--------------------------|--------------------------|


  E  E  E  E  E  E  E  E     E  E  E  E  E  E  E  E     E  E  E  E  Q    E  E   
--------------------------|--------------------------|-------------------------|
--------------------------|--------------------------|-------------------------|
--------------------------|-----------------------5--|--7----------------------|
--8--8--8--8--8--8--8--8--|--7--7--7--7--7--7--7-----|-----0--0-----0----0--2--|


  E  E  E  E  Q    E  E     E  E  E  E  E  E  E  E     E  E  E  E  Q    E  E   
-------------------------|--------------------------|-------------------------|
-------------------------|--------------------------|-------------------------|
-------------------------|--------------------0--2--|--3--3--3-----3----5--6--|
--3--3--3-----3----3--3--|--5--5--5-----5-----------|-------------------------|


  E  E  E  E  Q    E  E     E  E  E  E  Q    E  E     E  E  E  E  Q    E  E   
-------------------------|-------------------------|-------------------------|
-------------------------|-------------------------|-------------------------|
--7----------------------|-------------------------|-------------------0--2--|
-----0--0-----0----0--0--|--3--3--3-----3----3--3--|--5--5--5-----5----------|


  E  E  E  E  E  E  E  E     E  E  E  E  Q    E  E     E  E  E  E  Q    E  E   
--------------------------|-------------------------|-------------------------|
--------------------2--5--|-------------------------|-------------------------|
--3--3--3-----3--5--------|--7----------------------|-------------------------|
--------------------------|-----0--0-----0----0--2--|--3--3--3-----3----3--3--|


  E  E  E  E  Q    E  E     E  E  E  E  Q    E  E     E  E  E  E  Q    E  E   
-------------------------|-------------------------|-------------------------|
-------------------------|-------------------------|-------------------------|
-------------------0--2--|--3--3--3-----3----5--6--|--7----------------------|
--5--5--5-----5----------|-------------------------|-----0--0-----0----0--0--|


  E  E  E  E  Q    E  E     E  E  E  E  Q    E  E     E  E  E  E  E  E  E  E   
-------------------------|-------------------------|--------------------------|
-------------------------|-------------------------|--------------------2--5--|
-------------------------|-------------------0--2--|--3--3--3-----3--5--------|
--3--3--3-----3----3--3--|--5--5--5-----5----------|--------------------------|


  E  E  E  E  Q    E  E     E  E  E  E  Q    E  E     E  E  E  E  Q    E  E   
-------------------------|-------------------------|-------------------------|
-------------------------|-------------------------|-------------------------|
--7----------------------|-------------------------|-------------------0--2--|
-----0--0-----0----0--2--|--3--3--3-----3----3--3--|--5--5--5-----5----------|


  E  E  E  E  Q    E  E    
-------------------------||
-------------------------||
--3--3--3-----3----5--6--||
-------------------------||




Duration Legend
---------------
W - whole
H - half
Q - quarter
E - 8th
S - 16th
T - 32nd
X - 64th
. - note dotted
|-n-|  - n-tuplets


Tablature Legend
----------------
L - tied note
x - dead note
g - grace note
(n) - ghost note
> - accentuded note
NH - natural harmonic
AH - artificial harmonic
TH - tapped harmonic
SH - semi harmonic
PH - pitch harmonic
h - hammer on
p - pull off
b - bend
br - bendRelease
pb - preBend
pbr - preBendRelease
brb - bendReleaseBend
\n/ - tremolo bar dip
\n - tremolo bar dive
-/n - tremolo bar Release up
/n\ - tremolo bar inverted dip
/n - tremolo bar return
-\n - tremolo bar Release down
S - shift slide
s - legato slide
/ -  slide into from below or out of upwards
\ -  slide into from above or out of downwards
~ - vibrato
W - wide vibrato
tr - trill
TP - tremolo picking
T - tapping
S - slap
P - pop
< - fade in
^ - brush up
v - brush down


            
            
Suggest correction
Creating personal tab
Creating personal tab
You can edit any tab online and save it as your Personal.

You can edit, replace or remove any tab part or add personal notes – all changes will be seen only by you.

Personal tabs can be accessed anytime from any device, even offline.
Learn more »
Give kudos to tab author, rate the tab!
1 2 3 4 5
comments
print report bad tab
guest
You may want to rate the tab now too:
select rating
Wanna post a correction for this tab? Suggest correction